Sound will begin in 5 seconds

Kendrick lamar mash up

Chords
01234567891011121314151617181920212223
E
B
G
D
A
E
B
0 1 2 3 4 5 6 7 8 9 10 11 12 13 14 15 16 17 18 19 20 21 22 23
Song Science #1: How Pros Use 6 Chords to Write Hit Songs
(/) Slide Up  (\) Slide Down  (h) Hammer On  (p) Pull Off  (b) Bend (r) Release (v) Vibrato

Stave 1:

A|---------------------------------------------------|--
E|-------6--6h7--6-----------------6-----------------|--
C|--6h8-------------8--6--------------8--6\3--3h6p3--|--
G|---------------------------------------------------|--

Stave 2:

A|------------------------------------------------------------|--
E|-------6--6h9--9/11--9--6-----------------6-----------------|--
C|--6h8----------------------8--6--------------8--6\3--3h6p3--|--
G|------------------------------------------------------------|--

Stave 3:

A|--------9--6--------------------3-----------------|--
E|-----6-----------------------1-----1--------------|--
C|--6-----------------------2-----------------------|--
G|--------------------------------------------------|--

Stave 4:

A|------------------------------|---------------------------|--
E|------------------------------|---------------------------|--
C|--0h1--1--1--1--0h1--1--1--1--|---------------------------|--
G|------------------------------|--5h6--6--6--6--5h6--6--6--|--

Stave 5:

A|------------------------------|--------------------------|--
E|------------------------------|--3-----3-----8-----8-----|--
C|------------------------------|--5-----5-----7-----7-----|--
G|--8/10--8--10--8--5--8--5--8--|--------------------------|--

Stave 6:

A|-----------------|--------------------------------------|--
E|-----------------|--10h12p10------10--12--10------------|--
C|--7--6-----2--4--|------------12--------------12--7--9--|--
G|-----------------|--------------------------------------|--

Stave 7:

A|--3--3--3--3--3--3--|--8--8--8--8--8---8--|--
E|--3--3--3--3--3--3--|--8--8--8--8--8---8--|--
C|--3--3--3--3--5--3--|--8--8--8--8--10--8--|--
G|--3--3--3--3--3--3--|--8--8--8--8--8---8--|--

Stave 8:

A|--8b10-----8b10p6--8--6--|-------------------------------|--
E|-------------------------|-------6--8--8-----8--6--------|--
C|-------------------------|--5h7--------------------7--5--|--
G|-------------------------|-------------------------------|--

Stave 9:

A|-------------------------------|-------------------6/8--6--------|--
E|-------6--8--8-----8--6--------|-------6--8--8-------------8--6--|--
C|--5h7--------------------7--5--|--5h7----------------------------|--
G|-------------------------------|---------------------------------|--

Stave 10:

A|-------------------8--8--8--6--------------|--
E|-------6--8--8-----------------8--6--8--6--|--
C|--5h7--------------------------------------|--
G|-------------------------------------------|--

Stave 11:

A|--------------------------|--11--11--11--12--12--12--16--16--|--
E|--4--4--4--5--5--5--9--9--|----------------------------------|--
C|--------------------------|----------------------------------|--
G|--------------------------|----------------------------------|--

Stave 12:

A|----------------------------------------------------------|--
E|-----9--8--6-----------------------------9--8--6----------|--
C|--5-----------6--5--5--5--5--5--5--5--5-----------6--5h6--|--
G|----------------------------------------------------------|--

Stave 13:

A|----------------------------------------------------------|--
E|---------------------------8/9--8--6-----6h8--6-----------|--
C|--5--6--5--6--5--6--5h6h8-------------8----------8--6--5--|--
G|----------------------------------------------------------|--

Stave 14:

A|-----------3--------------|-----------11--------------------9-----------|--
E|-----4-----------4-----4--|-----6---------6-----6-----6--------6-----6--|--
C|--------5-----------5-----|--------6---------6-----------6--------6-----|--
G|--5-----------------------|--6---------------------6--------------------|--

http://www.guitartabcreator.com
Guitar Tab Creator is intended to store guitar tab created through the tool. It currently does not support in-line text editing. Any text you place in here will be lost. If you need to comment on your tab, please use the "Tab Notes" section located below.