Sound will begin in 5 seconds

Iron Maiden - The Trooper

Chords
01234567891011121314151617181920212223
E
B
G
D
A
E
B
0 1 2 3 4 5 6 7 8 9 10 11 12 13 14 15 16 17 18 19 20 21 22 23
Song Science #1: How Pros Use 6 Chords to Write Hit Songs
(/) Slide Up  (\) Slide Down  (h) Hammer On  (p) Pull Off  (b) Bend (r) Release (v) Vibrato

Stave 1:

A|--7--7--7p5-----5--5--5p3-----3--3--3p2-----5--10--5--7--
E|-------------7-------------5-------------3---------------
C|---------------------------------------------------------
G|---------------------------------------------------------

Stave 2:

A|--10--10--10p9------9--9--9p7------7--7--7p5--------------
E|----------------12-------------10-------------7-----------
C|----------------------------------------------------------
G|----------------------------------------------------------

Stave 3:

A|------------2--------------------------------------------
E|--3--2h3p2-----3--2--2h3p2--------3----------------------
C|----------------------------4--2-----2--2h4--------------
G|---------------------------------------------------------

Stave 4:

A|-----------------------------------------------------------
E|--7--5h7p5--10--7--5--5h7p5--------------------------------
C|-----------------------------7-----6--7--6--7--------------
G|-----------------------------------------------------------

Stave 5:

A|-------------2--------------2--------------3-------------2--
E|-----3-------3-----3--------3-----3--------0-----3-------3--
C|--2-----2h4--4--2-----2--4--4--2-----2--0--0--2-----2h4--4--
G|-------------------------------------------0----------------

Stave 6:

A|--2--2--2--3--
E|--3--2--2--0--
C|--4--2--2--0--
G|-----2--4--0--

Stave 7:

A|----------------------------10--10p7-------------------
E|--10b12--10b12--10p7h10--7------------10--7------------
C|---------------------------------------------10--9--7--
G|-------------------------------------------------------

Stave 8:

A|---------------------------------------------------------
E|-------7h10-----------10--7------------------------------
C|--9b8--------9---------------10--9--7--------------------
G|---------------------------------------------------------

Stave 9:

A|------14p10------12p10--------15b17--15b17--15b17--15b18--
E|--12---------12-------------------------------------------
C|----------------------------------------------------------
G|----------------------------------------------------------

Stave 10:

A|--15--14--12------12--14--12----------
E|--------------15--------------15--12--
C|--------------------------------------
G|--------------------------------------

Stave 11:

A|--------7---------------------------
E|-----7-----10b12--10p7--------------
C|--9---------------------10--9--7\5--
G|------------------------------------

Stave 12:

A|--0--2--2--0--
E|--0--3--3--1--
C|--0--2--4--0--
G|--2--------2--

Stave 13:

A|--3--
E|-----
C|-----
G|-----

Stave 14:

A|--3p0--3p0--3p0--3p0---------------------------
E|----------------------3p0--3p0--3p0--3p0--3/5--
C|-----------------------------------------------
G|-----------------------------------------------

Stave 15:

A|--5--4--3-----3--4--3----------------------
E|-----------5-----------5--4--3-------------
C|--------------------------------4--2--2/4--
G|-------------------------------------------

Stave 16:

A|--------------0-----2-----3-----5-----7--------7/10--
E|--0-----3--------------------------------------------
C|-----------------------------------------------------
G|-----------------------------------------------------

Stave 17:

A|--10p7h10p7h10p7h10p7---------------------------
E|-----------------------10--10p7h10p7h10p7h10p7--
C|------------------------------------------------
G|------------------------------------------------

Stave 18:

A|--10-----10-----
E|--7------7------
C|--9------9------
G|----------------

Stave 19:

A|---------10b12--15b17--12------15--14--12------12--14--12---------------------
E|--10b12--------------------15--------------15--------------15--12--10--10/12--
C|------------------------------------------------------------------------------
G|------------------------------------------------------------------------------

http://www.guitartabcreator.com
Guitar Tab Creator is intended to store guitar tab created through the tool. It currently does not support in-line text editing. Any text you place in here will be lost. If you need to comment on your tab, please use the "Tab Notes" section located below.