Sound will begin in 5 seconds

Fleetwood Mac Part 1

Chords
01234567891011121314151617181920212223
E
B
G
D
A
E
B
0 1 2 3 4 5 6 7 8 9 10 11 12 13 14 15 16 17 18 19 20 21 22 23
Song Science #1: How Pros Use 6 Chords to Write Hit Songs
(/) Slide Up  (\) Slide Down  (h) Hammer On  (p) Pull Off  (b) Bend (r) Release (v) Vibrato

Stave 1:

A|--7--------|--0-----5-----0--5-----0--5-----5-----7--|--
E|--4--------|--0-----2-----0--2-----0--2-----2-----4--|--
A|--4--------|--1-----2-----1--2-----1--2-----2-----4--|--
G|--4--------|--2-----2-----2--2-----2--2-----2-----4--|--

Stave 2:

A|--------------------------------------------4--5--
E|--------------------0-----0--0--2--2--4--5--5--5--
A|--1-----1--2--2--2--------------------------------
G|--------------------------------------------------

Stave 3:

A|-----0-----0--2--0--2-----2-----|--
E|-----1-----1--3--3--3-----3-----|--
A|--0--0--0--0--2--2--2-----2-----|--
G|--2--2--2--2--------------------|--

Stave 4:

A|--5\2-----------5--5\3--0-------------------|--
E|-------3--5-------------------3/5--5--3--0--|--
A|--------------------------------------------|--
G|--------------------------------------------|--

http://www.guitartabcreator.com
Guitar Tab Creator is intended to store guitar tab created through the tool. It currently does not support in-line text editing. Any text you place in here will be lost. If you need to comment on your tab, please use the "Tab Notes" section located below.