Sound will begin in 5 seconds

1975

Chords
01234567891011121314151617181920212223
E
B
G
D
A
E
B
0 1 2 3 4 5 6 7 8 9 10 11 12 13 14 15 16 17 18 19 20 21 22 23
Song Science #1: How Pros Use 6 Chords to Write Hit Songs
(/) Slide Up  (\) Slide Down  (h) Hammer On  (p) Pull Off  (b) Bend (r) Release (v) Vibrato

Stave 1:

A|-6-6-6-6----5----|-8-8-8-8----7----|-6-6-6-6----5----|-8-8-8-8----7----|-
E|-5-5-5-5----4----|-8-8-8-8----7----|-5-5-5-5----4----|-8-8-8-8----7----|-
A|-5-5-5-5----4----|-9-9-9-9----8----|-5-5-5-5----4----|-9-9-9-9----8----|-
G|-5-5-5-5----4----|-8-8-8-8----7----|-5-5-5-5----4----|-8-8-8-8----7----|-

Stave 2:

A|-6----0-0----------------|-6----0-0-------------------|-
E|-5----1-1----2-3-x-2-3-x-|-5----1-1----2-3-x-2-3-x----|-
A|-5----0-0----2-3-x-2-3-x-|-5----0-0----2-3-x-2-3-x----|-
G|-5----2-2----2-3-x-2-3-x-|-5----2-2----2-3-x-2-3-x----|-

Stave 3:

A|---8-------------------|---8-------------------------|-
E|-----8-6----6-4-6-8----|-----8-6----6-6-8-8-11-11-13-|-
A|-5---------------------|-5---------------------------|-
G|-----------------------|-----------------------------|-

Stave 4:

A|-------------------------------------|------------------------------------|-
E|-6h8p6----6h8p6----6h8p6----6h8p6----|-6h8p6----3-6----6-6----1-1-1-------|-
A|-7--------7--------7--------7--------|-7--------5-7----7-7----3-3-3-------|-
G|-------------------------------------|------------------------------------|-

Stave 5:

A|-----8---10-8---8-|-------------3---|-
E|---8---8------8---|-----6-----0---0-|-
A|-5----------------|---5---5-0-------|-
G|------------------|-3---------------|-

Stave 6:

A|-3----1-0----------------------------|--------------------------------------|-
E|----------1----3-1-3-5----3-1--------|-3-1-3-5----3-1-3----1-0------1-1-0---|-
A|------------------------------0-2----|-------------------------2----------0-|-
G|-------------------------------------|--------------------------------------|-

Stave 7:

A|-1----3----1-------1----3----|-3----|---------11---------11-------------
E|-2----4----1-------2----4----|-4----|----9h11----11-9h11----11----------
A|-1----3----1-------3----3----|-1----|-10--------------------------------
G|-3----5----3-------3----5----|------|-----------------------------------

Stave 8:

A|-1----1----1------1-3-3/5-5----5----5------5-3-1-1----1----1------1-3-3/5-5----6-
E|-1----1----1--------------3----3----3------------1----1----1--------------3----3-
A|-2----2----2--------------3----3----3------------2----2----2--------------3----3-
G|-3----3----3----3---------3----3----3----3-------3----3----3----3---------3----3-

Stave 9:

A|-5----6-5-3-8----8----8-8-5---------------3---5----5---5-3---1----1----|-
E|-3----------5----5----5-----8-5---5---5---3---3----3---------1----1----|-
A|-3----------5----5----5---------7---7---7-3h5-3----3---------2----2----|-
G|-3----------5----5----5-------------------3---3----3-3-----3-3----3----|-

http://www.guitartabcreator.com
Guitar Tab Creator is intended to store guitar tab created through the tool. It currently does not support in-line text editing. Any text you place in here will be lost. If you need to comment on your tab, please use the "Tab Notes" section located below.