Sound will begin in 5 seconds

The Everyday

01234567891011121314151617181920212223
E
B
G
D
A
E
B
0 1 2 3 4 5 6 7 8 9 10 11 12 13 14 15 16 17 18 19 20 21 22 23
(/) Slide Up  (\) Slide Down  (h) Hammer On  (p) Pull Off  (b) Bend (r) Release (v) Vibrato

intro

F|-----|-----|-----|-----|-----|-----|-----|-----|-----------------------|-----------------------|--
C|-----|-----|-----|-----|-----|-----|-----|-----|--4--4--4--4--4--4--4--|--2--2--2--2--2--2--2--|--
G|-----|-----|-----|-----|-----|-----|-----|-----|-----------------------|-----------------------|--
C|-----|-----|-----|-----|-----|-----|-----|-----|-----------------------|-----------------------|--

intro

F|-----------------------|-----------------------|-----------------------|-----------------------|--
C|--0--0--0--0--0--0--0--|-----------------------|--4--4--4--4--4--4--4--|--2--2--2--2--2--2--2--|--
G|-----------------------|-----------------------|-----------------------|-----------------------|--
C|-----------------------|-----------------------|-----------------------|-----------------------|--

intro (this note bass only)

F|-----------------------------------------------------------------
C|-----------------------------------------------------------------
G|-----------------------------------------------------------------
C|--0--------------------------------------------------------------

Chorus (first one is instrumental) - (play this X2, first and second phrase)

F|-----------------------|-----------------------|-----------------------|-----------------------|--
C|-----------------------|-----------------------|-----------------------|-----------------------|--
G|-----------------------|-----------------------|-----------------------|-----------------------|--
C|--7--7--7--7--7--7--7--|--4--4--4--4--4--4--4--|--0--0--0--0--0--0--0--|--0--0--0--0--0--0--0--|--

chorus (third line)

F|-----------------------|-----------------------|-----------------------|-----------------------|--
C|-----------------------|-----------------------|-----------------------|-----------------------|--
G|-----------------------|-----------------------|-----------------------|-----------------------|--
C|--4--4--4--4--4--4--4--|--2--2--2--2--2--2--2--|--0--0--0--0--0--0--0--|-----------------------|--

chorus (last line)

F|-----------------------|-----------------------|--------------------------|--
C|-----------------------|-----------------------|--------------------------|--
G|-----------------------|-----------------------|--------------------------|--
C|--4--4--4--4--4--4--4--|--2--2--2--2--2--2--2--|--0-----0-----0-----------|--

Verse (u/k exact strumming pattern)

F|--------------------------|--------------------------|--------------------------|--------------------
C|--------------------------|--------------------------|--------------------------|--------------------
G|--------------------------|--------------------------|--------------------------|--------------------
C|--2--2--2--2--2--2--2--2--|--2--2--2--2--4--4--4--4--|--0--0--0--0--0--0--0--0--|--0--0--0--0--0--0--

verse last line

F|--------------------------|--------------------------|--------------|--------------------
C|--------------------------|--------------------------|--------------|--------------------
G|--------------------------|--------------------------|--------------|--------------------
C|--2--2--2--2--2--2--2--2--|--2--2--2--2--4--4--4--4--|--0--------0--|-----0--------------

bridge (lines 1-3)

F|---------------------|-----9--------------|--------------------------|--------------------------|--
C|-----12--------------|--------------------|--------------------------|--------------------------|--
G|---------------------|--------------------|--------------------------|--------------------------|--
C|--9------9--9--------|--9-----9--9--------|--4--4--4--4--4--4--4--4--|--7--7--7--7--2--2--2--2--|--

bridge last line

F|---------------------|-----9--------------|--------------------------|--------------------------|-----
C|-----12--------------|--------------------|--------------------------|--------------------------|-----
G|---------------------|--------------------|--------------------------|--------------------------|-----
C|--9------9--9--------|--9-----9--9--------|--4--4--4--4--4--4--4--4--|--2--2--2--2--2--2--2--2--|--0--

http://www.guitartabcreator.com
Guitar Tab Creator is intended to store guitar tab created through the tool. It currently does not support in-line text editing. Any text you place in here will be lost. If you need to comment on your tab, please use the "Tab Notes" section located below.