Sound will begin in 5 seconds

Life is a Highway

Chords
01234567891011121314151617181920212223
E
B
G
D
A
E
B
0 1 2 3 4 5 6 7 8 9 10 11 12 13 14 15 16 17 18 19 20 21 22 23
(/) Slide Up  (\) Slide Down  (h) Hammer On  (p) Pull Off  (b) Bend (r) Release (v) Vibrato

Stave 1:

E|-13-|-13-13-13-|---------|-----|----|-------------|-
B|-13-|-13-15-13-|---6-8-8-|-8-6-|-13-|-13-11-13-13-|-
G|-10-|----------|-7-------|-----|----|-------------|-
D|----|----------|---------|-----|----|-------------|-
A|----|----------|---------|-----|----|-------------|-
E|----|----------|---------|-----|----|-------------|-

Stave 2:

E|------|----|-----------|---|-
B|-10-6-|----|-8-8-6-----|---|-
G|------|----|-------7-5-|-5-|-
D|------|----|-----------|---|-
A|------|----|-----------|---|-
E|------|----|-----------|---|-

Stave 3:

E|----------|----------------------|------------|-
B|-13-13-13-|-13-10----10----------|------------|-
G|----------|-------12----14-12-10-|-7----5-7-5-|-
D|----------|----------------------|------------|-
A|----------|----------------------|------------|-
E|----------|----------------------|------------|-

Stave 4:

E|-------------------|-15-|----------------------------------------|-
B|----------------13-|----|-18-15----18-15-13----15-13-------------|-
G|-------10-12-14----|----|-------17----------14-------14-12-------|-
D|-10-12-------------|----|----------------------------------14-15-|-
A|-------------------|----|----------------------------------------|-
E|-------------------|----|----------------------------------------|-

Stave 5:

E|-13-10-------------------------------|------------|-
B|-------13----------------------------|-3-8--12-15-|-
G|----------14-12-14-12-10-12----------|-5-10-14-17-|-
D|----------------------------12-10-12-|------------|-
A|-------------------------------------|------------|-
E|-------------------------------------|------------|-

http://www.guitartabcreator.com
Guitar Tab Creator is intended to store guitar tab created through the tool. It currently does not support in-line text editing. Any text you place in here will be lost. If you need to comment on your tab, please use the "Tab Notes" section located below.