Sound will begin in 5 seconds

Highway to hell

Chords
01234567891011121314151617181920212223
E
B
G
D
A
E
B
0 1 2 3 4 5 6 7 8 9 10 11 12 13 14 15 16 17 18 19 20 21 22 23
(/) Slide Up  (\) Slide Down  (h) Hammer On  (p) Pull Off  (b) Bend (r) Release (v) Vibrato

Stave 1:

E|-----5-----------|-----------------|-------|-----------|-
B|---5-----5-5---5-|-5---5-5---5-5-7-|-5-----|-----------|-
G|-7-----7-----7---|---7-----7-----7-|-5-7-5-|-----------|-
D|-----------------|-----------------|-------|-4-4-2-----|-
A|-----------------|-----------------|-------|-------3-0-|-
E|-----------------|-----------------|-------|-----------|-

Stave 2:

E|-----5---|-----5---|-----------5-|-5-----------|-
B|-------5-|-----5-5-|-5-----------|-5-----------|-
G|-2-4-----|-2-2---4-|---2-0-0-2---|---4-2-14-18-|-
D|---------|---------|-------------|-------------|-
A|---------|---------|-------------|-------------|-
E|---------|---------|-------------|-------------|-

http://www.guitartabcreator.com
Guitar Tab Creator is intended to store guitar tab created through the tool. It currently does not support in-line text editing. Any text you place in here will be lost. If you need to comment on your tab, please use the "Tab Notes" section located below.