Sound will begin in 5 seconds

Solo

Chords
01234567891011121314151617181920212223
E
B
G
D
A
E
B
0 1 2 3 4 5 6 7 8 9 10 11 12 13 14 15 16 17 18 19 20 21 22 23
Song Science #1: How Pros Use 6 Chords to Write Hit Songs
(/) Slide Up  (\) Slide Down  (h) Hammer On  (p) Pull Off  (b) Bend (r) Release (v) Vibrato

Stave 1:

E|--------------------------------------------------------------------------------------------------------------------------------------------------------------------------------------
B|------------------------------------------------------7--8--8/10-----9--10--10/12-----10--11--12--11--10----------10--10--12--12--14--14--12--------------14--13--12------13--13--12--
G|--10--11--12--10--12--10--9-----9--10--7-----7--8--5------------------------------------------------------12--11--10--10----------------------15--14--14--------------14--------------
D|--------------------------------------------------------------------------------------------------------------------------------------------------------------------------------------
A|--------------------------------------------------------------------------------------------------------------------------------------------------------------------------------------
E|--------------------------------------------------------------------------------------------------------------------------------------------------------------------------------------

Stave 2:

E|------------------------------------------------------------------------------------------------------------------
B|--10-----12--11--10---------------------------------------------7--8--8/10-----9--10--10/12-----11--12--12/14-----
G|------------------------12--11--10-----9--10--7-----7--8--5-------------------------------------------------------
D|------------------------------------------------------------------------------------------------------------------
A|------------------------------------------------------------------------------------------------------------------
E|------------------------------------------------------------------------------------------------------------------

Stave 3:

E|--------------------------------------------------------------------------------------------------------------------------------------------
B|--14--14--15--15--17--17--15--14----------16--15--14------16--16--15--14-----14--15--12-----12--13--10-----10--11--11/13-----12--13--13/15--
G|----------------------------------17--17--------------17------------------------------------------------------------------------------------
D|--------------------------------------------------------------------------------------------------------------------------------------------
A|--------------------------------------------------------------------------------------------------------------------------------------------
E|--------------------------------------------------------------------------------------------------------------------------------------------

Stave 4:

E|------------------------------
B|--15--14--13--------------13--
G|--------------15--14--13--13--
D|------------------------------
A|------------------------------
E|------------------------------

http://www.guitartabcreator.com
Guitar Tab Creator is intended to store guitar tab created through the tool. It currently does not support in-line text editing. Any text you place in here will be lost. If you need to comment on your tab, please use the "Tab Notes" section located below.