Sound will begin in 5 seconds

Riff

Chords
01234567891011121314151617181920212223
E
B
G
D
A
E
B
0 1 2 3 4 5 6 7 8 9 10 11 12 13 14 15 16 17 18 19 20 21 22 23
Song Science #1: How Pros Use 6 Chords to Write Hit Songs
(/) Slide Up  (\) Slide Down  (h) Hammer On  (p) Pull Off  (b) Bend (r) Release (v) Vibrato

Stave 1:

C |-------------------------------------------------------------------------------------------
G |-------------------------------------------------------------------------------------------
Eb|-------------------------------------------------------------------------------------------
Bb|-----------------9--9--------------------7--------------------6--6-----------------10--10--
F |-----------7--9--7--7--------------7--9--5--------------7--9--4--4--------------7--8---8---
C |--0--7--8-----------------0--7--8--------------0--7--8-----------------0--7--8-------------

Stave 2:

C |--------------------------------------------------------------------------------
G |--------------------------------------------------------------------------------
Eb|--------------------------------------------------------------------------------
Bb|-----------------8--8--------------------7--7--------------------8--7--9--9--9--
F |-----------7--9--6--6--------------7--9--5--5--------------7--9-----------7--7--
C |--0--7--8-----------------0--7--8-----------------0--7--8-----------------------

http://www.guitartabcreator.com
Guitar Tab Creator is intended to store guitar tab created through the tool. It currently does not support in-line text editing. Any text you place in here will be lost. If you need to comment on your tab, please use the "Tab Notes" section located below.