Sound will begin in 5 seconds

Learning guitar the clean

01234567891011121314151617181920212223
E
B
G
D
A
E
B
0 1 2 3 4 5 6 7 8 9 10 11 12 13 14 15 16 17 18 19 20 21 22 23
Song Science #1: How Pros Use 6 Chords to Write Hit Songs
(/) Slide Up  (\) Slide Down  (h) Hammer On  (p) Pull Off  (b) Bend (r) Release (v) Vibrato

Stave 1:

E|---------------------------------0--1--
B|---------------------------5--6--------
G|--------------------9--10--------------
D|--------------2--3---------------------
A|--------7--8---------------------------
E|--0--1---------------------------------

Stave 2:

E|---------------------------------7--8--
B|---------------------------0--1--------
G|---------------------4--5--------------
D|--------------9--10--------------------
A|--------2--3---------------------------
E|--7--8---------------------------------

Stave 3:

E|----------------------------------------------------------------0--1--7--8--12--13--
B|----------------------------------------------------5--6--0--1----------------------
G|---------------------------------------9--10--4--5----------------------------------
D|--------------------------2--3--9--10-----------------------------------------------
A|--------------7--8--2--3------------------------------------------------------------
E|--0--1--7--8------------------------------------------------------------------------

Stave 4:

E|--------------------------------------------------------------------------------------------------0--1--3--7--8--10--12--13--15--
B|--------------------------------------------------------------------------------5--6--8--0--1--3---------------------------------
G|------------------------------------------------------------9--10--12--4--5--7---------------------------------------------------
D|----------------------------------------2--3--5--9--10--12-----------------------------------------------------------------------
A|---------------------7--8--10--2--3--5-------------------------------------------------------------------------------------------
E|--0--1--3--7--8--10--------------------------------------------------------------------------------------------------------------

http://www.guitartabcreator.com
Guitar Tab Creator is intended to store guitar tab created through the tool. It currently does not support in-line text editing. Any text you place in here will be lost. If you need to comment on your tab, please use the "Tab Notes" section located below.