Sound will begin in 5 seconds

The Gate

01234567891011121314151617181920212223
E
B
G
D
A
E
B
0 1 2 3 4 5 6 7 8 9 10 11 12 13 14 15 16 17 18 19 20 21 22 23
(/) Slide Up  (\) Slide Down  (h) Hammer On  (p) Pull Off  (b) Bend (r) Release (v) Vibrato

Stave 1:

E|--12--12--10----------10----------------------------------------------------------------------
B|--------------12--12------10--10--12----------------------------------------------------------
G|--------------------------------------12--12--12--11---------------------------------------9--
D|------------------------------------------------------12--------------------------------------
A|----------------------------------------------------------------------------------------------
E|----------------------------------------------------------------------------------------------

Stave 2:

E|------14--15--19--17--14----------14--15--19--17--14--
B|--17----------------------17--17----------------------
G|------------------------------------------------------
D|------------------------------------------------------
A|------------------------------------------------------
E|------------------------------------------------------

Stave 3:

E|--------------------------------------------------------------------------------------------------
B|--------------------------------------------------------------------------------------15--17--15--
G|--------------14--16--17--16--14--------------------------14--16--17--16--14--16--17--------------
D|--14--16--17----------------------17--16--14--14--16--17------------------------------------------
A|--------------------------------------------------------------------------------------------------
E|--------------------------------------------------------------------------------------------------

Stave 4:

E|----------14--15--14--15--14------14--15--14--17--14--19--17--15--17--14------------------------------
B|--15--17----------------------17------------------------------------------15--17--15------------------
G|--------------------------------------------------------------------------------------17--16--14--16--
D|------------------------------------------------------------------------------------------------------
A|------------------------------------------------------------------------------------------------------
E|------------------------------------------------------------------------------------------------------

Stave 5:

E|------------------------------------------
B|------------------------------------------
G|--------------14--16--17--16--14----------
D|--14--16--17----------------------17--16--
A|------------------------------------------
E|------------------------------------------

http://www.guitartabcreator.com
Guitar Tab Creator is intended to store guitar tab created through the tool. It currently does not support in-line text editing. Any text you place in here will be lost. If you need to comment on your tab, please use the "Tab Notes" section located below.