Sound will begin in 5 seconds

The Circle

Chords
01234567891011121314151617181920212223
E
B
G
D
A
E
B
0 1 2 3 4 5 6 7 8 9 10 11 12 13 14 15 16 17 18 19 20 21 22 23
(/) Slide Up  (\) Slide Down  (h) Hammer On  (p) Pull Off  (b) Bend (r) Release (v) Vibrato

Stave 1:

E|----------------
B|----------------
G|--9--12--11--7--
D|--7--10--9---5--
A|----------------
E|----------------

Stave 2:

E|----------------------------------------------------------------------
B|----------------10-----------------------10---------------------------
G|--9--12--9--12------12--9--9--12--9--12------12--9------9-------------
D|----------------------------------------------------12-----12--10--9--
A|----------------------------------------------------------------------
E|----------------------------------------------------------------------

Stave 3:

E|----------------12--10--------------------------------------------------------------------------------
B|------------------------12--10--12--10--12--10--------------------------------------------------------
G|--9--12--9--12----------------------------------------------------0--5--7--7--5-----------------------
D|---------------------------------------------------------0--5--7-----------------7--5--7--5-----------
A|------------------------------------------------0--5--7--------------------------------------7--5--7--
E|------------------------------------------------------------------------------------------------------

Stave 4:

E|-----------------------------------------------------------------10--12--10--12--15--15--14--15--17--
B|-----------------------------------------------------12--10--12--------------------------------------
G|-----------------------------------------7--9--7--9--------------------------------------------------
D|--------------5-----5--7--5--7--9--7--9--------------------------------------------------------------
A|--7--7--5--7-----7-----------------------------------------------------------------------------------
E|-----------------------------------------------------------------------------------------------------

Stave 5:

E|--15--14--15--14------14--15--17--15--14--15--14----------10--12--10------10--------------------------
B|------------------17------------------------------15--17--------------12------12--10--12--10------10--
G|----------------------------------------------------------------------------------------------12------
D|------------------------------------------------------------------------------------------------------
A|------------------------------------------------------------------------------------------------------
E|------------------------------------------------------------------------------------------------------

Stave 6:

E|------------------
B|------------------
G|--12--11--12--11--
D|------------------
A|------------------
E|------------------

http://www.guitartabcreator.com
Guitar Tab Creator is intended to store guitar tab created through the tool. It currently does not support in-line text editing. Any text you place in here will be lost. If you need to comment on your tab, please use the "Tab Notes" section located below.