Sound will begin in 5 seconds

Glow in the dark heart

Chords
01234567891011121314151617181920212223
E
B
G
D
A
E
B
0 1 2 3 4 5 6 7 8 9 10 11 12 13 14 15 16 17 18 19 20 21 22 23
Song Science #1: How Pros Use 6 Chords to Write Hit Songs
(/) Slide Up  (\) Slide Down  (h) Hammer On  (p) Pull Off  (b) Bend (r) Release (v) Vibrato

Stave 1:

E|-----1--------5--------
B|--1--1--------5--------
G|--2--1--5-----5--------
D|--2--3--5--5--7--------
A|-----3--3--5--7--------
E|-----1-----3--5--------

Stave 2:

E|--3--1-----
B|--3--1--1--
G|--4--2-----
D|--5--3--2--
A|--5--3--3--
E|--3--1-----

Stave 3:

E|-----1----------
B|--1--1--1----1--
G|--2--2----------
D|--2--3--2-------
A|-----3--2h3--2--
E|-----1-------3--

Stave 4:

E|--5--3--1--3-------
B|--5--3--1--3----1--
G|--5--4--2-------2--
D|--7--5--3-------2--
A|--7--5--3--0h2-----
E|--5--3--1--3-------

http://www.guitartabcreator.com
Guitar Tab Creator is intended to store guitar tab created through the tool. It currently does not support in-line text editing. Any text you place in here will be lost. If you need to comment on your tab, please use the "Tab Notes" section located below.