All father Lampedusa

01234567891011121314151617181920212223
E
B
G
D
A
E
B
0 1 2 3 4 5 6 7 8 9 10 11 12 13 14 15 16 17 18 19 20 21 22 23
(/) Slide Up  (\) Slide Down  (h) Hammer On  (p) Pull Off  (b) Bend (r) Release (v) Vibrato

Stave 1: 00:53

G|-------------------------------------------|------------------------------|------------------------------------|-------------------------|--
D|-------------------------------------------|------------------------------|--8--8h10--10--8--------------------|-------------------------|--
A|-------------------6--8--8/10--8--6--------|--------6--6-----6--8/10--10--|------------------8--8/10--8--6-----|-------------------------|--
E|--6--6h8--8--6-----------------------8-----|--6--8--------8---------------|---------------------------------8--|--6--6h8--8--6-----------|--
B|-------------------------------------------|------------------------------|------------------------------------|----------------8--4--1--|--

Stave 2: 03:08

G|--------------------------|:--------|--------:|--
D|--------------------------|:--------|--------:|--
A|--------------------------|:--------|--6-----:|--
E|--------------------------|:--6--8--|-----8--:|--
B|--------------------------|:--------|--------:|--

Stave 3:

G|--
D|--
A|--
E|--
B|--

Stave 4:

G|------------------------------------------|---------------------------------------------
D|------------------------------------------|------------------6--------------------------
A|-----------10--------8--------6--------5--|--------10-----------------6--------5--------
E|--8-----8------8--8-----8--8-----8--8-----|--8--8------8--8-----8--8-----8--8-----------
B|------------------------------------------|---------------------------------------------

Stave 5:

G|--|:--------------------------:|--------------------|--:|-----
D|--|:--------------------------:|--------------------|--:|-----
A|--|:--------------------------:|--------------------|--:|--3--
E|--|:--4--4--4--4--4--4--4--4--:|--------------------|--:|-----
B|--|:--------------------------:|--4--3--6--4--3--4--|--:|-----

Stave 6:

G|-----------------------------|--------------------------------|-----------------------------|-----------------------------------|--
D|-----------------------------|--------------------------------|-----------------------------|-----------------------------------|--
A|--------------------------1--|--------------------------------|--------------------------1--|--3-----1--------------------------|--
E|--------1--3--------1--3-----|--------1--3--------1--3--------|--------1--3--------1--3-----|--------------3--4--1-----3--1-----|--
B|--1-----------1--------------|--1-----------1-----------4-----|--1-----------1--------------|--------------------------------4--|--

							http://www.guitartabcreator.com
Chords

Tab Notes
intro riff1 00:53->03:08 riff2 2x 03:08 -> 03:27 Riff1 xx -> 04:24 riff2 2x 04:24->4:40 Break Riff4 2x 04:51->05:15 Riff5 ->05:38 Riff 4 05:38->05:58 Riff 5 -> 06:40 Break2 x2->07:08
Instruments
{"strings":[[[".",".",".",".",".",".","_","_",".",".",".",".",".",".",".","_","|",".",".",".",".",".",".",".",".",".",".","|",".",".",".",".",".",".",".",".",".",".",".",".",".","|",".",".",".",".",".",".",".",".",".","|"],[".",".",".",".",".",".","_","_",".",".",".",".",".",".",".","_","|",".",".",".",".",".",".",".",".",".",".","|",8,8,"h",10,10,8,".",".",".",".",".",".",".","|",".",".",".",".",".",".",".",".",".","|"],[".",".",".",".",".",".","_",6,8,8,"/",10,8,6,".","_","|",".",".",6,6,".",6,8,"/",10,10,"|",".",".",".",".",".",".",8,8,"/",10,8,6,".","|",".",".",".",".",".",".",".",".",".","|"],[6,6,"h",8,8,6,"_","_",".",".",".",".",".",".",8,"_","|",6,8,".",".",8,".",".",".",".",".","|",".",".",".",".",".",".",".",".",".",".",".",".",8,"|",6,6,"h",8,8,6,".",".",".","|"],[".",".",".",".",".",".","_","_",".",".",".",".",".",".",".","_","|",".",".",".",".",".",".",".",".",".",".","|",".",".",".",".",".",".",".",".",".",".",".",".",".","|",".",".",".",".",".",".",8,4,1,"|"]],[["_","_",".",".",".",".",".",".","|:",".",".","|",".",".",":|"],["_","_",".",".",".",".",".",".","|:",".",".","|",".",".",":|"],["_","_",".",".",".",".",".",".","|:",".",".","|",6,".",":|"],["_","_",".",".",".",".",".",".","|:",6,8,"|",".",8,":|"],["_","_",".",".",".",".",".",".","|:",".",".","|",".",".",":|"]],[[],[],[],[],[]],[[".","_",".",".",".",".",".",".",".",".",".",".",".","|",".",".",".",".",".",".",".",".",".",".",".",".","_","_"],[".","_",".",".",".",".",".",".",".",".",".",".",".","|",".",".",".",".",".",6,".",".",".",".",".",".","_","_"],[".","_",".",10,".",".",8,".",".",6,".",".",5,"|",".",".",10,".",".",".",".",".",6,".",".",5,"_","_"],[8,"_",8,".",8,8,".",8,8,".",8,8,".","|",8,8,".",8,8,".",8,8,".",8,8,".","_","_"],[".","_",".",".",".",".",".",".",".",".",".",".",".","|",".",".",".",".",".",".",".",".",".",".",".",".","_","_"]],[["|:",".",".",".",".",".",".",".",".",":|",".",".",".",".",".",".","|",":|","."],["|:",".",".",".",".",".",".",".",".",":|",".",".",".",".",".",".","|",":|","."],["|:",".",".",".",".",".",".",".",".",":|",".",".",".",".",".",".","|",":|",3],["|:",4,4,4,4,4,4,4,4,":|",".",".",".",".",".",".","|",":|","."],["|:",".",".",".",".",".",".",".",".",":|",4,3,6,4,3,4,"|",":|","."]],[[".","_",".",".",".","_",".",".",".","|",".","_",".",".",".","_",".",".",".","_","|",".","_",".",".",".","_",".",".",".","|",".","_",".","_",".",".",".","_",".",".",".","|"],[".","_",".",".",".","_",".",".",".","|",".","_",".",".",".","_",".",".",".","_","|",".","_",".",".",".","_",".",".",".","|",".","_",".","_",".",".",".","_",".",".",".","|"],[".","_",".",".",".","_",".",".",1,"|",".","_",".",".",".","_",".",".",".","_","|",".","_",".",".",".","_",".",".",1,"|",3,"_",1,"_",".",".",".","_",".",".",".","|"],[".","_",1,3,".","_",1,3,".","|",".","_",1,3,".","_",1,3,".","_","|",".","_",1,3,".","_",1,3,".","|",".","_",".","_",3,4,1,"_",3,1,".","|"],[1,"_",".",".",1,"_",".",".",".","|",1,"_",".",".",1,"_",".",".",4,"_","|",1,"_",".",".",1,"_",".",".",".","|",".","_",".","_",".",".",".","_",".",".",4,"|"]]],"numberofstrings":5,"notes":["G","D","A","E","B"],"capo":0,"stringnotes":["G2","D2","A1","E1","B0"],"comments":["Stave 1: 00:53","Stave 2: 03:08","Stave 3:","Stave 4:","Stave 5:","Stave 6:"],"timing":[[null,null,null,null,null,null,null,"W","W",null,null,null,null,null,null,null,null,null,null,null,null,null,null,null,null,null,null,null,null,null,null,null,null,null,null,null,null,null,null,null,null,null,null,null,null,null,null,null,null,null,null],["W","W",null,null,null,null,null,null,null,"W","W",null,"W","W"],[],["W","W","W","W","W","W","W","W","W","W","W","W","W",null,"W","W","W","W","W","W","W","W","W","W","W","W","W","W"],[null,"E","E","E","E","E","E","E","E",null,"E","E","E","E","E","E",null,null,"E"],["E","E","E","E","E","E","E","E","E",null,"E","E","E","E","E","E","E","E","E","E",null,"E","E","E","E","E","E","E","E","E",null,"E","E","E","E","E","E","E","E","E","E","E"]],"timingvisible":false,"tabcounter":43,"stave":5,"totalstaves":6,"instrument":"5bass","selectedtuning":"5bass","version":"13"}

Member for

1 year 6 months
Submitted by Durgaenil on Wed, 2021-09-29 00:18