1914 - hundrer wars offensive

Chords

01234567891011121314151617181920212223
E
B
G
D
A
E
B
0 1 2 3 4 5 6 7 8 9 10 11 12 13 14 15 16 17 18 19 20 21 22 23
(/) Slide Up  (\) Slide Down  (h) Hammer On  (p) Pull Off  (b) Bend (r) Release (v) Vibrato

Stave 1:

E|--------------------------------------------------------------------------------------------------
B|--------------------------------------------------------------------------------------------------
G|--------------------------------------------------------------------------------------------------
D|--------9-----------7-----------5-----------4-----5--------------5--------4--------4--7--------7--
A|-----7-----7-----7-----7-----7-----7-----5-----5-----3-----3--------3--------2-----------5--------
E|--0-----------0-----------0-----------0-----------------3--------------3--------2-----------5-----

Stave 2:

E|----------------------------------------------------------------------------------------------------
B|----------------------------------------------------------------------------------------------------
G|----------------------------------------------------------------------------------------------------
D|--------9-----------7-----------5-----------4-----5--------------5-----5--5/7--------7--4--------4--
A|-----7-----7-----7-----7-----7-----7-----5-----5-----3-----3--------3----------5-----------3--------
E|--0-----------0-----------0-----------0-----------------3-------------------------5-----------3-----

							http://www.guitartabcreator.com
Tab Notes
intro x6 riff1 x2 riff2/verse x2 3:57: riff3 x2 4:26: riff1 x2 4:55: riff2/verse x2 5:23: riff3 x2 5:55: clean break 6:39: riff4 x4 7:09: riff 2/5? 7:38: break silent 7:45: riff 1 x2 8:15: riff2/verse x2 8:45? riff3 x2 9:12: riff 1 x2
genre
Instruments
{"strings":[[[".",".",".",".",".",".",".",".",".",".",".",".",".",".",".",".",".",".",".",".","_",".",".",".",".",".",".",".",".",".",".","."],[".",".",".",".",".",".",".",".",".",".",".",".",".",".",".",".",".",".",".",".","_",".",".",".",".",".",".",".",".",".",".","."],[".",".",".",".",".",".",".",".",".",".",".",".",".",".",".",".",".",".",".",".","_",".",".",".",".",".",".",".",".",".",".","."],[".",".",9,".",".",".",7,".",".",".",5,".",".",".",4,".",5,".",".",".","_",5,".",".",4,".",".",4,7,".",".",7],[".",7,".",7,".",7,".",7,".",7,".",7,".",5,".",5,".",3,".",3,"_",".",3,".",".",2,".",".",".",5,".","."],[0,".",".",".",0,".",".",".",0,".",".",".",0,".",".",".",".",".",3,".","_",".",".",3,".",".",2,".",".",".",5,"."]],[[".",".",".",".",".",".",".",".",".",".",".",".",".",".",".",".",".",".",".",".","_",".",".",".",".",".",".",".",".",".",".",".",".","."],[".",".",".",".",".",".",".",".",".",".",".",".",".",".",".",".",".",".",".",".","_",".",".",".",".",".",".",".",".",".",".",".",".","."],[".",".",".",".",".",".",".",".",".",".",".",".",".",".",".",".",".",".",".",".","_",".",".",".",".",".",".",".",".",".",".",".",".","."],[".",".",9,".",".",".",7,".",".",".",5,".",".",".",4,".",5,".",".",".","_",5,".",5,5,"/",7,".",".",7,4,".",".",4],[".",7,".",7,".",7,".",7,".",7,".",7,".",5,".",5,".",3,".",3,"_",".",3,".",".",".",".",5,".",".",".",3,".","."],[0,".",".",".",0,".",".",".",0,".",".",".",0,".",".",".",".",".",3,".","_",".",".",".",".",".",".",".",5,".",".",".",3,"."]]],"numberofstrings":6,"notes":["E","B","G","D","A","E","B"],"capo":0,"stringnotes":["E4","B3","G3","D3","A2","E2"],"comments":["Stave 1:","Stave 2:"],"timing":[[null,null,null,null,null,null,null,null,null,null,null,null,null,null,null,null,null,null,null,"H",null,"H","H","H","H","H","H","H","H","H","H","H"],["H","H","H","H","H","H","H","H","H","H","H","H","H","H","H","H","H","H","H","H",null,"H","H","H","H","H","H","H","H","H","H","H","H","H"]],"timingvisible":false,"tabcounter":34,"stave":0,"totalstaves":2,"instrument":"6guitar","selectedtuning":"6_standard","version":"13"}

Member for

2 weeks
Submitted by Durgaenil on Sat, 2020-06-27 05:11