River Flows In You

Chords

01234567891011121314151617181920212223
E
B
G
D
A
E
B
0 1 2 3 4 5 6 7 8 9 10 11 12 13 14 15 16 17 18 19 20 21 22 23
(/) Slide Up  (\) Slide Down  (h) Hammer On  (p) Pull Off  (b) Bend (r) Release (v) Vibrato

Low volume

E|--17--16--17--16--17------17-----------------17--16--17--16--16b------
B|----------------------17------14b-------------------------------------
G|----------------------------------------------------------------------
D|----------------------------------------------------------------------
A|----------------------------------------------------------------------
E|----------------------------------------------------------------------



E|-----------------------------------------------------------------------------------------
B|--14--15--14\17--14/12-----------------------------------12\14--14h15--15\17--15p14--12--
G|------------------------------------14/13\14---------14----------------------------------
D|-------------------------------------------------14--------------------------------------
A|-----------------------------------------------------------------------------------------
E|-----------------------------------------------------------------------------------------



E|--17--16--17--16--17------17-----------------21--19-----21--19--17h19p17\16--17------------------------------------------------
B|----------------------17------15/14--15--17----------------------------------------------------12\14--14h15--15\17--15p14--12--
G|-------------------------------------------------------------------------------------------14----------------------------------
D|---------------------------------------------------------------------------------------14--------------------------------------
A|-------------------------------------------------------------------------------------------------------------------------------
E|-------------------------------------------------------------------------------------------------------------------------------

Max volume                  .

E|------------------------------------17v--16v--19b19v--17v--16v---------------
B|--10v--9v----------10v--9v--------------------------------------14v--12v--2--
G|-----------6v--4v-----------6v--4v-------------------------------------------
D|-----------------------------------------------------------------------------
A|-----------------------------------------------------------------------------
E|-----------------------------------------------------------------------------

							http://www.guitartabcreator.com
Instruments
{"strings":[[[17,16,17,16,17,".",17,".",".","_","_","_","_",17,16,17,16,16,"b","_","_"],[".",".",".",".",".",17,".",14,"b","_","_","_","_",".",".",".",".",".",".","_","_"],[".",".",".",".",".",".",".",".",".","_","_","_","_",".",".",".",".",".",".","_","_"],[".",".",".",".",".",".",".",".",".","_","_","_","_",".",".",".",".",".",".","_","_"],[".",".",".",".",".",".",".",".",".","_","_","_","_",".",".",".",".",".",".","_","_"],[".",".",".",".",".",".",".",".",".","_","_","_","_",".",".",".",".",".",".","_","_"]],[[".",".",".",".",".",".",".",".","_","_","_","_",".",".",".",".",".","_",".",".",".",".",".",".",".",".",".",".",".",".",".",".","."],[14,15,14,"\\",17,14,"/",12,"_","_","_","_",".",".",".",".",".","_",".",".",12,"\\",14,14,"h",15,15,"\\",17,15,"p",14,12],[".",".",".",".",".",".",".",".","_","_","_","_",14,"/",13,"\\",14,"_",".",14,".",".",".",".",".",".",".",".",".",".",".",".","."],[".",".",".",".",".",".",".",".","_","_","_","_",".",".",".",".",".","_",14,".",".",".",".",".",".",".",".",".",".",".",".",".","."],[".",".",".",".",".",".",".",".","_","_","_","_",".",".",".",".",".","_",".",".",".",".",".",".",".",".",".",".",".",".",".",".","."],[".",".",".",".",".",".",".",".","_","_","_","_",".",".",".",".",".","_",".",".",".",".",".",".",".",".",".",".",".",".",".",".","."]],[[17,16,17,16,17,".",17,".",".",".",".",".",21,19,"_",21,19,17,"h",19,"p",17,"\\",16,17,"_","_",".",".",".",".",".",".",".",".",".",".",".",".",".",".","."],[".",".",".",".",".",17,".",15,"/",14,15,17,".",".","_",".",".",".",".",".",".",".",".",".",".","_","_",".",".",12,"\\",14,14,"h",15,15,"\\",17,15,"p",14,12],[".",".",".",".",".",".",".",".",".",".",".",".",".",".","_",".",".",".",".",".",".",".",".",".",".","_","_",".",14,".",".",".",".",".",".",".",".",".",".",".",".","."],[".",".",".",".",".",".",".",".",".",".",".",".",".",".","_",".",".",".",".",".",".",".",".",".",".","_","_",14,".",".",".",".",".",".",".",".",".",".",".",".",".","."],[".",".",".",".",".",".",".",".",".",".",".",".",".",".","_",".",".",".",".",".",".",".",".",".",".","_","_",".",".",".",".",".",".",".",".",".",".",".",".",".",".","."],[".",".",".",".",".",".",".",".",".",".",".",".",".",".","_",".",".",".",".",".",".",".",".",".",".","_","_",".",".",".",".",".",".",".",".",".",".",".",".",".",".","."]],[[".",".",".",".",".",".",".",".",".",".",".",".",".",".",".",".",17,"v",16,"v",19,"b",19,"v",17,"v",16,"v",".",".",".",".","."],[10,"v",9,"v",".",".",".",".",10,"v",9,"v",".",".",".",".",".",".",".",".",".",".",".",".",".",".",".",".",14,"v",12,"v",2],[".",".",".",".",6,"v",4,"v",".",".",".",".",6,"v",4,"v",".",".",".",".",".",".",".",".",".",".",".",".",".",".",".",".","."],[".",".",".",".",".",".",".",".",".",".",".",".",".",".",".",".",".",".",".",".",".",".",".",".",".",".",".",".",".",".",".",".","."],[".",".",".",".",".",".",".",".",".",".",".",".",".",".",".",".",".",".",".",".",".",".",".",".",".",".",".",".",".",".",".",".","."],[".",".",".",".",".",".",".",".",".",".",".",".",".",".",".",".",".",".",".",".",".",".",".",".",".",".",".",".",".",".",".",".","."]]],"numberofstrings":6,"notes":["E","B","G","D","A","E","B"],"capo":0,"stringnotes":["E4","B3","G3","D3","A2","E2"],"comments":["Low volume","","","Max volume ."],"timing":[["W","W","W","W","W","W","W","W",null,null,"W",null,null,"W","W","W","W","W",null,"W"],["W","W","W","W","W","W",null,"W",null,null,null,"W","W","W","W","W","W","W","W","W","W","W","W","W",null,"W","W",null,"W","W",null,"W","W"],["W","W","W","W","W","W","W","W",null,"W","W","W","W","W",null,"W","W","W",null,"W",null,"W",null,"W","W",null,null,"W","W","W",null,"W","W",null,"W","W",null,"W","W",null,"W","W"],["W",null,"W","W","W",null,"W",null,"W",null,"W",null,"W",null,"W",null,"W",null,"W",null,"W",null,"W",null,"W",null,"W",null,"W",null,"W",null,"W"]],"timingvisible":false,"tabcounter":33,"stave":3,"totalstaves":4,"instrument":"6guitar","selectedtuning":"6_standard","version":"13"}

Member for

3 years 6 months
Submitted by Duong Allen on Sun, 2020-09-20 14:19