Ideal and the Real (main lead) (not yet completed)

Chords

01234567891011121314151617181920212223
E
B
G
D
A
E
B
0 1 2 3 4 5 6 7 8 9 10 11 12 13 14 15 16 17 18 19 20 21 22 23
(/) Slide Up  (\) Slide Down  (h) Hammer On  (p) Pull Off  (b) Bend (r) Release (v) Vibrato

Stave 1:

E|--------------------------------------------------------------------------------
B|--5--6--5--------------------------------5--6--5--------------------------5-----
G|-----------5--------------------------------------5--------------5--7--4--------
D|--------------7--5--7-----2--7--5-----7--------------7--5--7--------------------
A|--------------------------------------------------------------------------------
E|--------------------------------------------------------------------------------

Stave 2:

E|------------------------------------------------
B|-----8--6--5--6-----5h6p5-----5--------5--------
G|---------------------------7-----5--7-----7-----
D|--7------------------------------------------5--
A|------------------------------------------------
E|------------------------------------------------

Stave 3:

E|-----------------------------------------------------
B|-----------------------5--6--5-----8-----------5-----
G|-----------------5--7-----------------5--7--------4--
D|--------5--7--9--------------------------------------
A|--7--8-----------------------------------------------
E|-----------------------------------------------------

Stave 4:

E|----------------------------------------------------------------------
B|----------------------------------------------------------------------
G|-------5--7b9--------7b9r7--5--7--------5--5--5--4-----4--------------
D|--5\7-----------------------------------------------------5--5--7--7--
A|----------------------------------------------------------------------
E|----------------------------------------------------------------------

Stave 5:

E|---------------------------------------------------------------------------------------------------------------------
B|-----------------5-----5--8--8--5--8\10--10-----13--15p13--12--13--12------------------------------------------------
G|-----------5--7-----7--------------------------------------------------12-------------------------12-----------------
D|--5--5--7------------------------------------------------------------------14--12------12--12b14------12b14--10------
A|-----------------------------------------------------------------------------------15----------------------------12--
E|---------------------------------------------------------------------------------------------------------------------

Stave 6:

E|---------------------------------------------------------------------------------------------------------------------------------------------------------
B|--12--13--15--13b15--13--15b17-----15b17r15--13--12------------------------------------------------------------------------------------------------------
G|--------------------------------------------------------12\9--12--14-------------------------------------------------------------------------------------
D|----------------------------------------------------------------------12------12--14--12--------------------------12--10--12b14--------------------------
A|--------------------------------------------------------------------------15--------------15--12------12--14--15-----------------10--12--10--12--10--12--
E|--------------------------------------------------------------------------------------------------15-----------------------------------------------------

Stave 7:

E|--
B|--
G|--
D|--
A|--
E|--

							http://www.guitartabcreator.com
Instruments
{"strings":[[[".",".",".",".",".",".",".","_",".",".",".","_",".",".",".",".",".",".",".",".","_",".",".",".",".","_"],[5,6,5,".",".",".",".","_",".",".",".","_",".",5,6,5,".",".",".",".","_",".",".",".",5,"_"],[".",".",".",5,".",".",".","_",".",".",".","_",".",".",".",".",5,".",".",".","_",5,7,4,".","_"],[".",".",".",".",7,5,7,"_",2,7,5,"_",7,".",".",".",".",7,5,7,"_",".",".",".",".","_"],[".",".",".",".",".",".",".","_",".",".",".","_",".",".",".",".",".",".",".",".","_",".",".",".",".","_"],[".",".",".",".",".",".",".","_",".",".",".","_",".",".",".",".",".",".",".",".","_",".",".",".",".","_"]],[[".",".",".",".",".","_",".",".",".",".",".",".",".",".",".",".",".","."],[".",8,6,5,6,"_",5,"h",6,"p",5,".",5,".",".",5,".","."],[".",".",".",".",".","_",".",".",".",".",".",7,".",5,7,".",7,"."],[7,".",".",".",".","_",".",".",".",".",".",".",".",".",".",".",".",5],[".",".",".",".",".","_",".",".",".",".",".",".",".",".",".",".",".","."],[".",".",".",".",".","_",".",".",".",".",".",".",".",".",".",".",".","."]],[[".",".",".",".",".",".",".",".",".",".","_",".",".",".","_",".","."],[".",".",".",".",".",".",".",5,6,5,"_",8,".",".","_",5,"."],[".",".",".",".",".",5,7,".",".",".","_",".",5,7,"_",".",4],[".",".",5,7,9,".",".",".",".",".","_",".",".",".","_",".","."],[7,8,".",".",".",".",".",".",".",".","_",".",".",".","_",".","."],[".",".",".",".",".",".",".",".",".",".","_",".",".",".","_",".","."]],[[".",".",".",".",".",".",".","_","_",".",".",".",".",".",".",".","_","_",".",".",".",".","_",".",".",".",".","."],[".",".",".",".",".",".",".","_","_",".",".",".",".",".",".",".","_","_",".",".",".",".","_",".",".",".",".","."],[".",".",".",5,7,"b",9,"_","_",7,"b",9,"r",7,5,7,"_","_",5,5,5,4,"_",4,".",".",".","."],[5,"\\",7,".",".",".",".","_","_",".",".",".",".",".",".",".","_","_",".",".",".",".","_",".",5,5,7,7],[".",".",".",".",".",".",".","_","_",".",".",".",".",".",".",".","_","_",".",".",".",".","_",".",".",".",".","."],[".",".",".",".",".",".",".","_","_",".",".",".",".",".",".",".","_","_",".",".",".",".","_",".",".",".",".","."]],[[".",".",".",".",".",".",".",".",".",".",".",".",".",".",".","_",".",".",".",".",".",".",".",".",".",".",".",".",".",".",".",".",".",".",".",".","."],[".",".",".",".",".",5,".",5,8,8,5,8,"\\",10,10,"_",13,15,"p",13,12,13,12,".",".",".",".",".",".",".",".",".",".",".",".",".","."],[".",".",".",5,7,".",7,".",".",".",".",".",".",".",".","_",".",".",".",".",".",".",".",12,".",".",".",".",".",".",".",12,".",".",".",".","."],[5,5,7,".",".",".",".",".",".",".",".",".",".",".",".","_",".",".",".",".",".",".",".",".",14,12,".",12,12,"b",14,".",12,"b",14,10,"."],[".",".",".",".",".",".",".",".",".",".",".",".",".",".",".","_",".",".",".",".",".",".",".",".",".",".",15,".",".",".",".",".",".",".",".",".",12],[".",".",".",".",".",".",".",".",".",".",".",".",".",".",".","_",".",".",".",".",".",".",".",".",".",".",".",".",".",".",".",".",".",".",".",".","."]],[[".",".",".",".",".",".",".",".",".",".","_",".",".",".",".",".",".",".","_",".",".",".",".",".",".",".",".",".",".",".",".",".",".",".",".",".",".",".",".",".",".",".",".",".",".","."],[12,13,15,13,"b",15,13,15,"b",17,"_",15,"b",17,"r",15,13,12,"_",".",".",".",".",".",".",".",".",".",".",".",".",".",".",".",".",".",".",".",".",".",".",".",".",".",".","."],[".",".",".",".",".",".",".",".",".",".","_",".",".",".",".",".",".",".","_",12,"\\",9,12,14,".",".",".",".",".",".",".",".",".",".",".",".",".",".",".",".",".",".",".",".",".","."],[".",".",".",".",".",".",".",".",".",".","_",".",".",".",".",".",".",".","_",".",".",".",".",".",12,".",12,14,12,".",".",".",".",".",".",12,10,12,"b",14,".",".",".",".",".","."],[".",".",".",".",".",".",".",".",".",".","_",".",".",".",".",".",".",".","_",".",".",".",".",".",".",15,".",".",".",15,12,".",12,14,15,".",".",".",".",".",10,12,10,12,10,12],[".",".",".",".",".",".",".",".",".",".","_",".",".",".",".",".",".",".","_",".",".",".",".",".",".",".",".",".",".",".",".",15,".",".",".",".",".",".",".",".",".",".",".",".",".","."]],[[],[],[],[],[],[]]],"numberofstrings":6,"notes":["E","B","G","D","A","E","B"],"capo":0,"stringnotes":["E4","B3","G3","D3","A2","E2"],"comments":["Stave 1:","Stave 2:","Stave 3:","Stave 4:","Stave 5:","Stave 6:","Stave 7:"],"timing":[["W","W","W","W","W","W","W",null,"W","W","W",null,"W","W","W","W","W","W","W","W","W","W","W","W","W"],["W","W","W","W","W",null,"W",null,"W",null,"W","W","W","W","W","W","W","W"],["W","W","W","W","W","W","W","W","W","W",null,"W","W","W",null,"W","W"],["W",null,"W","W","W",null,"W",null,"W","W","W","W","W","W","W","W",null,null,"W","W","W","W",null,"W","W","W","W","W"],["W","W","W","W","W","W","W","W","W","W","W","W","W","W","W",null,"W","W",null,"W","W","W","W","W","W","W","W","W","W",null,"W","W","W",null,"W","W","W"],["W","W","W","W",null,"W","W","W",null,"W",null,"W",null,"W",null,"W","W","W",null,"W",null,"W","W","W","W","W","W","W","W","W","W","W","W","W","W","W","W","W",null,"W","W","W","W","W","W","W"],[]],"timingvisible":false,"tabcounter":0,"stave":6,"totalstaves":7,"instrument":"6guitar","selectedtuning":"6_standard","version":"13"}

Member for

3 years 6 months
Submitted by Duong Allen on Fri, 2020-10-16 08:02