Dekaranger into action (not the song)

01234567891011121314151617181920212223
E
B
G
D
A
E
B
0 1 2 3 4 5 6 7 8 9 10 11 12 13 14 15 16 17 18 19 20 21 22 23
(/) Slide Up  (\) Slide Down  (h) Hammer On  (p) Pull Off  (b) Bend (r) Release (v) Vibrato

Stave 1:

E|--------------------------------------------------------
B|--------------------------------------------------------
G|--------------------------------------------------------
D|--------------------------------------------------------
A|--------------------------------------------------------
E|--5--5--8--0--7--10--8--3--5--5--8--0--7--10--10--8--3--

Stave 2:

E|-----------------------------------------------------
B|-----------------------------------------------------
G|--9--7--9--7-----------------------------------------
D|--------------10--9--7--10-----7--7--7--10--7--5--7--
A|-----------------------------------------------------
E|-----------------------------------------------------

Stave 3:

E|------------------------------------------------------
B|------------------------------------------------------
G|--9--7------7-----------------------------------------
D|--------10-----10--9--7--10-----7--7--7--10--7--5--7--
A|------------------------------------------------------
E|------------------------------------------------------

Stave 4:

E|-------------------------------------------------------------------------
B|-------------------------------------------------------------------------
G|------------10b12--10-----10------------------------10b12--10-----10-----
D|--7--10--7--------------------7--7--------7--10--7--------------------7--
A|-------------------------------------------------------------------------
E|-------------------------------------------------------------------------

Stave 5:

E|------------------------------------------------------------------------------------------
B|------------------------------------------------------------------------------------------
G|--7--7--5--7--5--7--5--7--5--7--5--7--5--------9--12--9--12--9--12--12b14--12--7b9--7--5--
D|------------------------------------------------------------------------------------------
A|------------------------------------------------------------------------------------------
E|------------------------------------------------------------------------------------------

Stave 6:

E|------------------------------------------------------------------------------------------------
B|------------------------------------------------------------------------------------------------
G|--7--7--5--7--5--7--5--7--5--7--5--7--5--------9--12--9--12--9--12--12b14--12--7--9--12--12b14--
D|------------------------------------------------------------------------------------------------
A|------------------------------------------------------------------------------------------------
E|------------------------------------------------------------------------------------------------

							http://www.guitartabcreator.com
Chords

Instruments
{"strings":[[[".",".",".",".",".",".",".",".",".",".",".",".",".",".",".",".","."],[".",".",".",".",".",".",".",".",".",".",".",".",".",".",".",".","."],[".",".",".",".",".",".",".",".",".",".",".",".",".",".",".",".","."],[".",".",".",".",".",".",".",".",".",".",".",".",".",".",".",".","."],[".",".",".",".",".",".",".",".",".",".",".",".",".",".",".",".","."],[5,5,8,0,7,10,8,3,5,5,8,0,7,10,10,8,3]],[[".",".",".",".",".",".",".",".","_",".",".",".",".",".",".","."],[".",".",".",".",".",".",".",".","_",".",".",".",".",".",".","."],[9,7,9,7,".",".",".",".","_",".",".",".",".",".",".","."],[".",".",".",".",10,9,7,10,"_",7,7,7,10,7,5,7],[".",".",".",".",".",".",".",".","_",".",".",".",".",".",".","."],[".",".",".",".",".",".",".",".","_",".",".",".",".",".",".","."]],[[".",".",".",".",".",".",".",".","_",".",".",".",".",".",".","."],[".",".",".",".",".",".",".",".","_",".",".",".",".",".",".","."],[9,7,".",7,".",".",".",".","_",".",".",".",".",".",".","."],[".",".",10,".",10,9,7,10,"_",7,7,7,10,7,5,7],[".",".",".",".",".",".",".",".","_",".",".",".",".",".",".","."],[".",".",".",".",".",".",".",".","_",".",".",".",".",".",".","."]],[[".",".",".",".",".",".",".","_",".",".",".","_","_",".",".",".",".",".",".",".","_",".","."],[".",".",".",".",".",".",".","_",".",".",".","_","_",".",".",".",".",".",".",".","_",".","."],[".",".",".",10,"b",12,10,"_",10,".",".","_","_",".",".",".",10,"b",12,10,"_",10,"."],[7,10,7,".",".",".",".","_",".",7,7,"_","_",7,10,7,".",".",".",".","_",".",7],[".",".",".",".",".",".",".","_",".",".",".","_","_",".",".",".",".",".",".",".","_",".","."],[".",".",".",".",".",".",".","_",".",".",".","_","_",".",".",".",".",".",".",".","_",".","."]],[[".",".",".",".",".",".",".",".",".",".",".",".",".","_","_",".",".",".",".",".",".",".",".",".",".",".",".",".",".","."],[".",".",".",".",".",".",".",".",".",".",".",".",".","_","_",".",".",".",".",".",".",".",".",".",".",".",".",".",".","."],[7,7,5,7,5,7,5,7,5,7,5,7,5,"_","_",9,12,9,12,9,12,12,"b",14,12,7,"b",9,7,5],[".",".",".",".",".",".",".",".",".",".",".",".",".","_","_",".",".",".",".",".",".",".",".",".",".",".",".",".",".","."],[".",".",".",".",".",".",".",".",".",".",".",".",".","_","_",".",".",".",".",".",".",".",".",".",".",".",".",".",".","."],[".",".",".",".",".",".",".",".",".",".",".",".",".","_","_",".",".",".",".",".",".",".",".",".",".",".",".",".",".","."]],[[".",".",".",".",".",".",".",".",".",".",".",".",".","_","_",".",".",".",".",".",".",".",".",".",".",".",".",".",".",".","."],[".",".",".",".",".",".",".",".",".",".",".",".",".","_","_",".",".",".",".",".",".",".",".",".",".",".",".",".",".",".","."],[7,7,5,7,5,7,5,7,5,7,5,7,5,"_","_",9,12,9,12,9,12,12,"b",14,12,7,9,12,12,"b",14],[".",".",".",".",".",".",".",".",".",".",".",".",".","_","_",".",".",".",".",".",".",".",".",".",".",".",".",".",".",".","."],[".",".",".",".",".",".",".",".",".",".",".",".",".","_","_",".",".",".",".",".",".",".",".",".",".",".",".",".",".",".","."],[".",".",".",".",".",".",".",".",".",".",".",".",".","_","_",".",".",".",".",".",".",".",".",".",".",".",".",".",".",".","."]]],"numberofstrings":6,"notes":["E","B","G","D","A","E","B"],"capo":0,"stringnotes":["E4","B3","G3","D3","A2","E2"],"comments":["Stave 1:","Stave 2:","Stave 3:","Stave 4:","Stave 5:","Stave 6:"],"timing":[["W","W","W","W","W","W","W","W","W","W","W","W","W","W","W","W","W"],["W","W","W","W","W","W","W","W",null,"W","W","W","W","W","W","W"],["W","W","W","W","W","W","W","W",null,"W","W","W","W","W","W","W"],["W","W","W","W",null,"W","W",null,"W","W","W",null,null,"W","W","W","W",null,"W","W","W","W","W"],["W","W","W","W","W","W","W","W","W","W","W","W","W",null,null,"W","W","W","W","W","W","W",null,"W","W","W",null,"W","W","W"],["W","W","W","W","W","W","W","W","W","W","W","W","W",null,"W","W","W","W","W","W","W","W",null,"W","W","W","W","W","W",null,"W"]],"timingvisible":false,"tabcounter":31,"stave":5,"totalstaves":6,"instrument":"6guitar","selectedtuning":"6_standard","version":"13"}

Member for

3 years 8 months
Submitted by Duong Allen on Thu, 2020-11-12 09:36