Battle in the Clock Tower (verse)

Chords

01234567891011121314151617181920212223
E
B
G
D
A
E
B
0 1 2 3 4 5 6 7 8 9 10 11 12 13 14 15 16 17 18 19 20 21 22 23
(/) Slide Up  (\) Slide Down  (h) Hammer On  (p) Pull Off  (b) Bend (r) Release (v) Vibrato

Stave 1:

E|------------------------------------------------------------
B|-----------8--7--7--------5--------------8--7--7--8--10--7--
G|--5--7--5-----------7--7--------5--7--5---------------------
D|------------------------------------------------------------
A|------------------------------------------------------------
E|------------------------------------------------------------

Stave 2:

E|-----------------------------------------
B|-----------8--7--7-----------------------
G|--5--7--5-----------7--7--5--4-----2--5--
D|-----------------------------------------
A|-----------------------------------------
E|-----------------------------------------

Stave 3:

E|--------------------------------------------------------------------
B|-----------8--7--7--------5--------------8--7--7--8--10--12--12-----
G|--5--7--5-----------7--7--------5--7--5--------------------------9--
D|--------------------------------------------------------------------
A|--------------------------------------------------------------------
E|--------------------------------------------------------------------

Stave 4:

E|--------------------------------
B|--11--10-----7--8--10-----9--7--
G|-----------------------7--------
D|--------------------------------
A|--------------------------------
E|--------------------------------

							http://www.guitartabcreator.com
Instruments
{"strings":[[[".",".",".",".",".",".",".",".",".","_",".",".",".",".",".",".",".",".","."],[".",".",".",8,7,7,".",".",5,"_",".",".",".",8,7,7,8,10,7],[5,7,5,".",".",".",7,7,".","_",5,7,5,".",".",".",".",".","."],[".",".",".",".",".",".",".",".",".","_",".",".",".",".",".",".",".",".","."],[".",".",".",".",".",".",".",".",".","_",".",".",".",".",".",".",".",".","."],[".",".",".",".",".",".",".",".",".","_",".",".",".",".",".",".",".",".","."]],[[".",".",".",".",".",".",".",".",".",".","_",".","."],[".",".",".",8,7,7,".",".",".",".","_",".","."],[5,7,5,".",".",".",7,7,5,4,"_",2,5],[".",".",".",".",".",".",".",".",".",".","_",".","."],[".",".",".",".",".",".",".",".",".",".","_",".","."],[".",".",".",".",".",".",".",".",".",".","_",".","."]],[[".",".",".",".",".",".",".",".",".","_",".",".",".",".",".",".",".",".",".",".","."],[".",".",".",8,7,7,".",".",5,"_",".",".",".",8,7,7,8,10,12,12,"."],[5,7,5,".",".",".",7,7,".","_",5,7,5,".",".",".",".",".",".",".",9],[".",".",".",".",".",".",".",".",".","_",".",".",".",".",".",".",".",".",".",".","."],[".",".",".",".",".",".",".",".",".","_",".",".",".",".",".",".",".",".",".",".","."],[".",".",".",".",".",".",".",".",".","_",".",".",".",".",".",".",".",".",".",".","."]],[[".",".","_",".",".",".",".",".","."],[11,10,"_",7,8,10,".",9,7],[".",".","_",".",".",".",7,".","."],[".",".","_",".",".",".",".",".","."],[".",".","_",".",".",".",".",".","."],[".",".","_",".",".",".",".",".","."]]],"numberofstrings":6,"notes":["E","B","G","D","A","E","B"],"capo":0,"stringnotes":["E4","B3","G3","D3","A2","E2"],"comments":["Stave 1:","Stave 2:","Stave 3:","Stave 4:"],"timing":[["W","W","W","W","W","W","W","W","W",null,"W","W","W","W","W","W","W","W","W"],["W","W","W","W","W","W","W","W","W","W",null,"W","W"],["W","W","W","W","W","W","W","W","W",null,"W","W","W","W","W","W","W","W","W","W","W"],["W","W",null,"W","W","W","W","W","W"]],"timingvisible":false,"tabcounter":9,"stave":3,"totalstaves":4,"instrument":"6guitar","selectedtuning":"6_standard","version":"13"}

Member for

3 years 6 months
Submitted by Duong Allen on Thu, 2020-10-08 08:52