Battle in the Clock Tower (intro)

Chords

01234567891011121314151617181920212223
E
B
G
D
A
E
B
0 1 2 3 4 5 6 7 8 9 10 11 12 13 14 15 16 17 18 19 20 21 22 23
(/) Slide Up  (\) Slide Down  (h) Hammer On  (p) Pull Off  (b) Bend (r) Release (v) Vibrato

Stave 1:

E|-----------------------------------------------------------------------------
B|-----------------------------------------------------------------------------
G|-----------------------------------------------------------------------------
D|-----------------------------------------------------------------------------
A|--5--5--5--8--8--8--7-----7--7--3--4--5--5--5--10--10--10--9-----9--9--8--7--
E|-----------------------------------------------------------------------------

Stave 2:

E|-----------------------------------------------------------------------------
B|-----------------------------------------------------------------------------
G|-----------------------------------------------------------------------------
D|-----------------------------------------------------------------------------
A|--5--5--5--8--8--8--7-----7--7--3--4--5--5--5--5--5--5--5--5--5--5--5--5--5--
E|-----------------------------------------------------------------------------

Stave 3:

E|------------------------------------------------------------------------------------
B|------------------------------------------------------------------------------------
G|--7--7--7--10--10--10--9-----9--9--5--6--7--7--7--12--12--12--11-----11--11--10--9--
D|--x--x--x--x---x---x---x-----x--x--x--x--x--x--x--x---x---x---x------x---x---x---x--
A|--5--5--5--8---8---8---7-----7--7--3--4--5--5--5--10--10--10--9------9---9---8---7--
E|------------------------------------------------------------------------------------

Stave 4:

E|-----------------------------------------------------------------------------
B|-----------------------------------------------------------------------------
G|--7--7--7--10--10--10--9-----9--9--5--6--7--7--7--7--7--7--7--7--7--7--7--7--
D|--x--x--x--x---x---x---x-----x--x--x--x--x--x--x--x--x--x--x--x--x--x--x--x--
A|--5--5--5--8---8---8---7-----7--7--3--4--5--5--5--5--5--5--5--5--5--5--5--5--
E|-----------------------------------------------------------------------------

Stave 5:

E|--------------------------------------------------------------------------------
B|--------------------------------------------------------------------------------
G|--------------------------------------------------------------------------------
D|--------------------------------------------------------------------------------
A|--------5--5-----5--5-----5--5-----5--5--------5--5-----5--5-----5--5-----5--5--
E|--3--3--3--3-----3--3-----3--3-----3--3--3--3--3--3-----3--3-----3--3-----3--3--

							http://www.guitartabcreator.com
Instruments
{"strings":[[[".",".",".",".",".",".",".","_",".",".",".",".",".",".",".",".",".",".",".","_",".",".",".","."],[".",".",".",".",".",".",".","_",".",".",".",".",".",".",".",".",".",".",".","_",".",".",".","."],[".",".",".",".",".",".",".","_",".",".",".",".",".",".",".",".",".",".",".","_",".",".",".","."],[".",".",".",".",".",".",".","_",".",".",".",".",".",".",".",".",".",".",".","_",".",".",".","."],[5,5,5,8,8,8,7,"_",7,7,3,4,5,5,5,10,10,10,9,"_",9,9,8,7],[".",".",".",".",".",".",".","_",".",".",".",".",".",".",".",".",".",".",".","_",".",".",".","."]],[[".",".",".",".",".",".",".","_",".",".",".",".",".",".",".",".",".",".",".",".",".",".",".",".","."],[".",".",".",".",".",".",".","_",".",".",".",".",".",".",".",".",".",".",".",".",".",".",".",".","."],[".",".",".",".",".",".",".","_",".",".",".",".",".",".",".",".",".",".",".",".",".",".",".",".","."],[".",".",".",".",".",".",".","_",".",".",".",".",".",".",".",".",".",".",".",".",".",".",".",".","."],[5,5,5,8,8,8,7,"_",7,7,3,4,5,5,5,5,5,5,5,5,5,5,5,5,5],[".",".",".",".",".",".",".","_",".",".",".",".",".",".",".",".",".",".",".",".",".",".",".",".","."]],[[".",".",".",".",".",".",".","_",".",".",".",".",".",".",".",".",".",".",".","_",".",".",".","."],[".",".",".",".",".",".",".","_",".",".",".",".",".",".",".",".",".",".",".","_",".",".",".","."],[7,7,7,10,10,10,9,"_",9,9,5,6,7,7,7,12,12,12,11,"_",11,11,10,9],["x6","x6","x6","x9","x9","x9","x8","_","x8","x8","x4","x4","x6","x7","x6","x11","x11","x11","x10","_","x10","x11","x9","x8"],[5,5,5,8,8,8,7,"_",7,7,3,4,5,5,5,10,10,10,9,"_",9,9,8,7],[".",".",".",".",".",".",".","_",".",".",".",".",".",".",".",".",".",".",".","_",".",".",".","."]],[[".",".",".",".",".",".",".","_",".",".",".",".",".",".",".",".",".",".",".",".",".",".",".","."],[".",".",".",".",".",".",".","_",".",".",".",".",".",".",".",".",".",".",".",".",".",".",".","."],[7,7,7,10,10,10,9,"_",9,9,5,6,7,7,7,7,7,7,7,7,7,7,7,7],["x6","x6","x6","x9","x9","x9","x8","_","x8","x8","x4","x5","x6","x6","x6","x6","x6","x6","x6","x6","x6","x6","x6","x6"],[5,5,5,8,8,8,7,"_",7,7,3,4,5,5,5,5,5,5,5,5,5,5,5,5],[".",".",".",".",".",".",".","_",".",".",".",".",".",".",".",".",".",".",".",".",".",".",".","."]],[[".",".",".",".","_",".",".","_",".",".","_",".",".",".",".",".",".","_",".",".","_",".",".","_",".","."],[".",".",".",".","_",".",".","_",".",".","_",".",".",".",".",".",".","_",".",".","_",".",".","_",".","."],[".",".",".",".","_",".",".","_",".",".","_",".",".",".",".",".",".","_",".",".","_",".",".","_",".","."],[".",".",".",".","_",".",".","_",".",".","_",".",".",".",".",".",".","_",".",".","_",".",".","_",".","."],[".",".",5,5,"_",5,5,"_",5,5,"_",5,5,".",".",5,5,"_",5,5,"_",5,5,"_",5,5],[3,3,3,3,"_",3,3,"_",3,3,"_",3,3,3,3,3,3,"_",3,3,"_",3,3,"_",3,3]]],"numberofstrings":6,"notes":["E","B","G","D","A","E","B"],"capo":0,"stringnotes":["E4","B3","G3","D3","A2","E2"],"comments":["Stave 1:","Stave 2:","Stave 3:","Stave 4:","Stave 5:"],"timing":[["W","W","W","W","W","W","W",null,"W","W","W","W","W","W","W","W","W","W","W","W","W","W","W","W","W","W","W"],["W","W","W","W","W","W","W","W","W","W","W","W","W","W","W","W","W","W","W","W","W","W","W","W","W"],["W","W","W","W","W","W","W","W","W","W","W","W","W","W","W","W","W","W","W",null,"W","W","W","W"],["W","W","W","W","W","W","W",null,"W","W","W","W","W","W","W","W","W","W","W","W","W","W","W","W"],["W","W","W","W","W","W","W",null,"W","W",null,"W","W","W","W","W","W",null,"W","W",null,"W","W",null,"W","W"]],"timingvisible":false,"tabcounter":25,"stave":4,"totalstaves":5,"instrument":"6guitar","selectedtuning":"6_standard","version":"13"}

Member for

3 years 6 months
Submitted by Duong Allen on Fri, 2020-10-09 07:15