Battle in the Clock Tower (chorus)

Chords

01234567891011121314151617181920212223
E
B
G
D
A
E
B
0 1 2 3 4 5 6 7 8 9 10 11 12 13 14 15 16 17 18 19 20 21 22 23
(/) Slide Up  (\) Slide Down  (h) Hammer On  (p) Pull Off  (b) Bend (r) Release (v) Vibrato

Stave 1:

E|-------------------------------------------------------------------
B|--11--10---------11--10--------------------------------------------
G|----------10-------------10-----10--10--8--7--5--7-----7--5--2--3--
D|-------------------------------------------------------------------
A|-------------------------------------------------------------------
E|-------------------------------------------------------------------

Stave 2:

E|------------------------------------------------------------------
B|--11--10------11--10--11--13--15--13--11--10--8--6--8--11--10--8--
G|----------10------------------------------------------------------
D|------------------------------------------------------------------
A|------------------------------------------------------------------
E|------------------------------------------------------------------

Stave 3:

E|-------------------------------------------------------------------
B|--11--10---------11--10--------------------------------------------
G|----------10-------------10-----10--10--8--7--5--7-----7--5--2--3--
D|-------------------------------------------------------------------
A|-------------------------------------------------------------------
E|-------------------------------------------------------------------

Stave 4:

E|--------------------------------------------------------------------------------------------
B|--11--10---------11--10--11--13\15--13--11--10--8-----6--8--11--10--8-----6--8--11--13--10--
G|----------10--------------------------------------------------------------------------------
D|--------------------------------------------------------------------------------------------
A|--------------------------------------------------------------------------------------------
E|--------------------------------------------------------------------------------------------

							http://www.guitartabcreator.com
Instruments
{"strings":[[[".",".",".","_",".",".",".","_",".",".",".",".",".",".","_",".",".",".","."],[11,10,".","_",11,10,".","_",".",".",".",".",".",".","_",".",".",".","."],[".",".",10,"_",".",".",10,"_",10,10,8,7,5,7,"_",7,5,2,3],[".",".",".","_",".",".",".","_",".",".",".",".",".",".","_",".",".",".","."],[".",".",".","_",".",".",".","_",".",".",".",".",".",".","_",".",".",".","."],[".",".",".","_",".",".",".","_",".",".",".",".",".",".","_",".",".",".","."]],[[".",".",".",".",".",".",".",".",".",".",".",".",".",".",".",".","."],[11,10,".",11,10,11,13,15,13,11,10,8,6,8,11,10,8],[".",".",10,".",".",".",".",".",".",".",".",".",".",".",".",".","."],[".",".",".",".",".",".",".",".",".",".",".",".",".",".",".",".","."],[".",".",".",".",".",".",".",".",".",".",".",".",".",".",".",".","."],[".",".",".",".",".",".",".",".",".",".",".",".",".",".",".",".","."]],[[".",".",".","_",".",".",".","_",".",".",".",".",".",".","_",".",".",".","."],[11,10,".","_",11,10,".","_",".",".",".",".",".",".","_",".",".",".","."],[".",".",10,"_",".",".",10,"_",10,10,8,7,5,7,"_",7,5,2,3],[".",".",".","_",".",".",".","_",".",".",".",".",".",".","_",".",".",".","."],[".",".",".","_",".",".",".","_",".",".",".",".",".",".","_",".",".",".","."],[".",".",".","_",".",".",".","_",".",".",".",".",".",".","_",".",".",".","."]],[[".",".",".","_",".",".",".",".",".",".",".",".",".",".","_",".",".",".",".",".","_",".",".",".",".","."],[11,10,".","_",11,10,11,13,"\\",15,13,11,10,8,"_",6,8,11,10,8,"_",6,8,11,13,10],[".",".",10,"_",".",".",".",".",".",".",".",".",".",".","_",".",".",".",".",".","_",".",".",".",".","."],[".",".",".","_",".",".",".",".",".",".",".",".",".",".","_",".",".",".",".",".","_",".",".",".",".","."],[".",".",".","_",".",".",".",".",".",".",".",".",".",".","_",".",".",".",".",".","_",".",".",".",".","."],[".",".",".","_",".",".",".",".",".",".",".",".",".",".","_",".",".",".",".",".","_",".",".",".",".","."]]],"numberofstrings":6,"notes":["E","B","G","D","A","E","B"],"capo":0,"stringnotes":["E4","B3","G3","D3","A2","E2"],"comments":["Stave 1:","Stave 2:","Stave 3:","Stave 4:"],"timing":[["W","W","W",null,"W","W","W",null,"W","W","W","W","W","W",null,"W","W","W","W"],["W","W","W","W","W","W","W","W","W","W","W","W","W","W","W","W","W"],["W","W","W",null,"W","W","W",null,"W","W","W","W","W","W",null,"W","W","W","W"],["W","W","W",null,"W","W","W","W",null,"W","W","W","W","W",null,"W","W","W","W","W",null,"W","W","W","W","W"]],"timingvisible":false,"tabcounter":26,"stave":3,"totalstaves":4,"instrument":"6guitar","selectedtuning":"6_standard","version":"13"}

Member for

3 years 6 months
Submitted by Duong Allen on Thu, 2020-10-08 08:51