Perfect Ed Sheeran v2

Chords

01234567891011121314151617181920212223
E
B
G
D
A
E
B
0 1 2 3 4 5 6 7 8 9 10 11 12 13 14 15 16 17 18 19 20 21 22 23
(/) Slide Up  (\) Slide Down  (h) Hammer On  (p) Pull Off  (b) Bend (r) Release (v) Vibrato

Stave 1:

E|----------------------------------------------|--------------------------------------|------------------------------|-----3--------2--
B|-------------------0-----------------0--------|--0--------0-----------------0--0--0--|--0------------------------0--|--------3--------
G|-------0--0-----0-----0-----------0-----2--0--|--------0-----0-----------0-----------|-----2p0-----0--------0h2-----|--2--------2-----
D|--0h2--------0-----------0-----0--------------|-----2-----------2-----2--------------|-------------------0----------|--0--------------
A|----------------------------------------------|--------------------------------------|--3-------3-----3-------------|-----------------
E|----------3-----------------3-----------------|--0-----------------0-----------------|------------------------------|-----------------

Stave 2:

E|-----------------------|--------------------------------------|----------------------------------------|--------------------------------------|--
B|-----------3--0--------|--0--------------------------3-----0--|-------------0-----------------------0--|--1-----1--0-----------------------0--|--
G|--------2--------2--0--|--------0--0-----0--------0-----------|--0h2--0--0--------0--------0--0--2-----|-----0-----------2--2--0-----0--2-----|--
D|--0--0-----------------|-----0--------0--------0--------------|----------------2--------2--------------|--------------2-----------------------|--
A|-----------------------|--------------------------------------|----------------------------------------|--3-----------------3-----------------|--
E|-----------------------|--3-----------------3-----------------|--0-------------------0-----------------|--------------------------------------|--

Stave 3:

E|-----------------------------0--------
B|-----------3--------3--3--3-----------
G|--2-----2-----2-----------------2--0--
D|--0--------------0--0-----------------
A|--------------------------------------
E|--------------------------------------

							http://www.guitartabcreator.com
Instruments
{"strings":[[[".",".",".",".",".",".",".",".",".",".",".",".",".",".",".",".","|",".",".",".",".",".",".",".",".",".",".",".",".","|",".",".",".",".",".",".",".",".",".",".",".",".","|",".",3,".",".",2],[".",".",".",".",".",".",".",0,".",".",".",".",".",0,".",".","|",0,".",".",0,".",".",".",".",".",0,0,0,"|",0,".",".",".",".",".",".",".",".",".",".",0,"|",".",".",3,".","."],[".",".",".",0,0,".",0,".",0,".",".",".",0,".",2,0,"|",".",".",0,".",0,".",".",".",0,".",".",".","|",".",2,"p",0,".",0,".",".",0,"h",2,".","|",2,".",".",2,"."],[0,"h",2,".",".",0,".",".",".",0,".",0,".",".",".",".","|",".",2,".",".",".",2,".",2,".",".",".",".","|",".",".",".",".",".",".",".",0,".",".",".",".","|",0,".",".",".","."],[".",".",".",".",".",".",".",".",".",".",".",".",".",".",".",".","|",".",".",".",".",".",".",".",".",".",".",".",".","|",3,".",".",".",3,".",3,".",".",".",".",".","|",".",".",".",".","."],[".",".",".",".",3,".",".",".",".",".",3,".",".",".",".",".","|",0,".",".",".",".",".",0,".",".",".",".",".","|",".",".",".",".",".",".",".",".",".",".",".",".","|",".",".",".",".","."]],[[".",".",".",".",".",".",".","|",".",".",".",".",".",".",".",".",".",".","_",".","|",".",".",".",".",".",".",".",".",".",".",".",".",".",".","|",".",".",".",".",".",".",".",".","_",".",".",".","|"],[".",".",".",3,0,".",".","|",0,".",".",".",".",".",".",".",".",3,"_",0,"|",".",".",".",".",".",0,".",".",".",".",".",".",".",0,"|",1,".",1,0,".",".",".",".","_",".",".",0,"|"],[".",".",2,".",".",2,0,"|",".",".",0,0,".",0,".",".",0,".","_",".","|",0,"h",2,0,0,".",".",0,".",".",0,0,2,".","|",".",0,".",".",".",2,2,0,"_",0,2,".","|"],[0,0,".",".",".",".",".","|",".",0,".",".",0,".",".",0,".",".","_",".","|",".",".",".",".",".",".",2,".",".",2,".",".",".",".","|",".",".",".",".",2,".",".",".","_",".",".",".","|"],[".",".",".",".",".",".",".","|",".",".",".",".",".",".",".",".",".",".","_",".","|",".",".",".",".",".",".",".",".",".",".",".",".",".",".","|",3,".",".",".",".",".",3,".","_",".",".",".","|"],[".",".",".",".",".",".",".","|",3,".",".",".",".",".",3,".",".",".","_",".","|",0,".",".",".",".",".",".",".",0,".",".",".",".",".","|",".",".",".",".",".",".",".",".","_",".",".",".","|"]],[[".","_",".",".",".",".",".",".",".",0,".","."],[".","_",".",3,".",".",3,3,3,".",".","."],[2,"_",2,".",2,".",".",".",".",".",2,0],[0,"_",".",".",".",0,0,".",".",".",".","."],[".","_",".",".",".",".",".",".",".",".",".","."],[".","_",".",".",".",".",".",".",".",".",".","."]]],"numberofstrings":6,"notes":["E","B","G","D","A","E","B"],"capo":0,"stringnotes":["E4","B3","G3","D3","A2","E2"],"comments":["Stave 1:","Stave 2:","Stave 3:"],"timing":[["W",null,"W","W","W","W","W","W","W","W","W","W","W","W","W","W","W","W","W","W","W","W","W","W","W","W","W","W","W","W","W","W","W","W","W","W","W","W","W","W","W","W","W","W","W","W","W","W","W","W","W"],["W","W","W","W","W","W","W","W","W","W","W","W","W","W","W","W","W","W",null,"W",null,"W",null,"W","W","W","W","W","W","W","W","W","W","W","W",null,"W","W","W","W","W","W","W","W",null,"W","W","W"],["W",null,"W","W","W","W","W","W","W","W","W","W",null,"W"]],"timingvisible":false,"tabcounter":11,"stave":2,"totalstaves":3,"instrument":"6guitar","selectedtuning":"6_standard","version":"13"}

Member for

1 week 4 days
Submitted by dtrung on Fri, 2020-05-22 22:32