Ed Sheeran Perfect v8

Chords

01234567891011121314151617181920212223
E
B
G
D
A
E
B
0 1 2 3 4 5 6 7 8 9 10 11 12 13 14 15 16 17 18 19 20 21 22 23
(/) Slide Up  (\) Slide Down  (h) Hammer On  (p) Pull Off  (b) Bend (r) Release (v) Vibrato

Stave 1:

E|-------------|-----------------------------|-----------------------|----------------|---------------------------|-----3--------2--|--
B|-------------|--0-----------------0--------|--0--0-----------------|-------0--0--0--|------------------------0--|--------3--------|--
G|-------0--0--|-----0-----------0-----2--0--|--------0-----------0--|--0h2-----------|--2p0--0--0--------0h2-----|--2--------2-----|--
D|--0h2--------|--------0-----0--------------|-----------2-----2-----|----------------|----------------0----------|--0--------------|--
A|-------------|-----------------------------|-----------------------|-------------3--|-------------3-------------|-----------------|--
E|----------3--|-----------3-----------------|--0-----------0--------|----------------|---------------------------|-----------------|--

Stave 2:

E|-----------------|-----------------|------------------------|-----------------|------------------------|-----------------|-----3--------|--
B|--------0--------|--0--0--------0--|--------0h3-------------|--------------0--|--0h1--1--0-------------|--------------0--|--------3-----|--
G|-----0-----2--0--|--------0--------|-----0-------2p0--0--0--|--------0--2-----|-------------0--2p0--0--|--------0--2-----|--2--------2--|--
D|-----------------|-----------0-----|------------------------|-----0-----------|------------------------|-----0-----------|--0-----------|--
A|-----------------|-----------------|------------------------|-----------------|--3---------------------|--3--------------|--------------|--
E|--3--------------|--3--------------|--0----------0----------|--0--------------|------------------------|-----------------|--------------|--

Stave 3:

E|-------------------0-------|-----
B|--------0h3--3--3----------|--0--
G|-----2----------------4/2--|-----
D|--0------------------------|-----
A|---------------------------|-----
E|---------------------------|--3--

							http://www.guitartabcreator.com
Instruments
{"strings":[[[".",".",".",".",".","|",".",".",".",".",".",".",".",".",".","|",".",".",".",".",".",".",".","|",".",".",".",".",".",".","|",".",".",".",".",".",".",".",".",".",".",".","|",".",3,".",".",2,"|"],[".",".",".",".",".","|",0,".",".",".",".",".",0,".",".","|",0,0,".",".",".",".",".","|",".",".",".",0,0,0,"|",".",".",".",".",".",".",".",".",".",".",0,"|",".",".",3,".",".","|"],[".",".",".",0,0,"|",".",0,".",".",".",0,".",2,0,"|",".",".",0,".",".",".",0,"|",0,"h",2,".",".",".","|",2,"p",0,0,0,".",".",0,"h",2,".","|",2,".",".",2,".","|"],[0,"h",2,".",".","|",".",".",0,".",0,".",".",".",".","|",".",".",".",2,".",2,".","|",".",".",".",".",".",".","|",".",".",".",".",".",".",0,".",".",".",".","|",0,".",".",".",".","|"],[".",".",".",".",".","|",".",".",".",".",".",".",".",".",".","|",".",".",".",".",".",".",".","|",".",".",".",".",".",3,"|",".",".",".",".",".",3,".",".",".",".",".","|",".",".",".",".",".","|"],[".",".",".",".",3,"|",".",".",".",3,".",".",".",".",".","|",0,".",".",".",0,".",".","|",".",".",".",".",".",".","|",".",".",".",".",".",".",".",".",".",".",".","|",".",".",".",".",".","|"]],[[".",".",".",".",".","|",".",".",".",".",".","|",".",".",".",".",".",".",".",".",".",".","|",".",".",".",".",".","|",".",".",".",".",".",".",".",".",".",".","|",".",".",".",".",".","|",".",3,".",".","|"],[".",".",0,".",".","|",0,0,".",".",0,"|",".",".",0,"h",3,".",".",".",".",".","|",".",".",".",".",0,"|",0,"h",1,1,0,".",".",".",".",".","|",".",".",".",".",0,"|",".",".",3,".","|"],[".",0,".",2,0,"|",".",".",0,".",".","|",".",0,".",".",".",2,"p",0,0,0,"|",".",".",0,2,".","|",".",".",".",".",".",0,2,"p",0,0,"|",".",".",0,2,".","|",2,".",".",2,"|"],[".",".",".",".",".","|",".",".",".",0,".","|",".",".",".",".",".",".",".",".",".",".","|",".",0,".",".",".","|",".",".",".",".",".",".",".",".",".",".","|",".",0,".",".",".","|",0,".",".",".","|"],[".",".",".",".",".","|",".",".",".",".",".","|",".",".",".",".",".",".",".",".",".",".","|",".",".",".",".",".","|",3,".",".",".",".",".",".",".",".",".","|",3,".",".",".",".","|",".",".",".",".","|"],[3,".",".",".",".","|",3,".",".",".",".","|",0,".",".",".",".",0,".",".",".",".","|",0,".",".",".",".","|",".",".",".",".",".",".",".",".",".",".","|",".",".",".",".",".","|",".",".",".",".","|"]],[[".",".",".",".",".",".",".",0,".",".",".","|","."],[".",".",0,"h",3,3,3,".",".",".",".","|",0],[".",2,".",".",".",".",".",".",4,"/",2,"|","."],[0,".",".",".",".",".",".",".",".",".",".","|","."],[".",".",".",".",".",".",".",".",".",".",".","|","."],[".",".",".",".",".",".",".",".",".",".",".","|",3]]],"numberofstrings":6,"notes":["E","B","G","D","A","E","B"],"capo":0,"stringnotes":["E4","B3","G3","D3","A2","E2"],"comments":["Stave 1:","Stave 2:","Stave 3:"],"timing":[["W",null,"W","W","W",null,"W","W","W","W","W","W","W","W","W",null,"W","W","W","W","W","W","W",null,"W",null,"W","W","W","W",null,"W",null,"W","W","W","W","W","W",null,"W","W",null,"W","W","W","W","W"],["W","W","W","W","W","W","W","W","W","W","W","W","W","W","W","W","W","W","W","W","W","W","W","W","W","W","W","W","W","W","W","W","W","W","W","W","W","W","W","W","W","W","W","W","W","W","W","W","W","W"],["W","W","W",null,"W","W","W","W","W",null,"W",null,"W"]],"timingvisible":false,"tabcounter":51,"stave":1,"totalstaves":3,"instrument":"6guitar","selectedtuning":"6_standard","version":"13"}

Member for

1 month 1 week
Submitted by dtrung on Tue, 2020-06-02 23:49