River flows in you

Chords

01234567891011121314151617181920212223
E
B
G
D
A
E
B
0 1 2 3 4 5 6 7 8 9 10 11 12 13 14 15 16 17 18 19 20 21 22 23
(/) Slide Up  (\) Slide Down  (h) Hammer On  (p) Pull Off  (b) Bend (r) Release (v) Vibrato

Capo Fret 2

Stave 1:

E|-----------3--2-----3--2--3-----3-----|--|--------3--2--3--------2--3-----------3-----------
B|--------0-----------0--------3-----1--|--|-----0-----------------------------3-----------1--
G|-----0--------0--------0-----0-----0--|--|--0-----------------0-----------0-----------0-----
D|-----------2--------------------------|--|--------2--------2--------------------------------
A|--------------------------3-----------|--|-----------------------------3-----------3--------
E|--------------------------------------|--|--------------------------------------------------

Stave 2:

E|-------------------|--------------------------------------------------------------
B|-------1--3--0-----|----------------------------0--------0h1--3--------1p0--------
G|--3/4-----0-----2--|--0-----0-----------0---h2--------0-------------0-------2-----
D|----------0-----0--|-----4--------2----------------2-------------0----------0--4--
A|-------------------|-----------2----------------3---------------------------------
E|--3----------------|--------0---------------------------------3-------------------

Repeat from S.1-  Bar 2 - 3 column until S.2 - Bar 1 - 3 column 

E|--7--5--5h7p5--3\2--|--3-----------
B|--------------------|--------------
G|--------7-----------|--------0-----
D|-----0--------------|-----2--------
A|--------------------|--------------
E|--------------------|--0-----------

Repeat from S.2 - Bar 2 - column 6 until the last line (2,0) in Stave 2

E|--------|--3--3/5\3p2--3-----------3--3/5\3p2--3-----------3--3/5\3p2--3/5--7/8/10--7------------------
B|--------|--------------------3-----------------------3---------------------------------10--8--7--------
G|-----2--|-----------------------0-----------------0-----0----------------------------------------7-----
D|--0-----|-----------------2-------------------------------------------------------------------0-----0--
A|--------|--------------------------------------3-------------------------------------------------------
E|--------|--------------0-----------------------------------------------3-------------------------------

Repeat whole bar 2 3 times (in total it is played 4 times)

E|-----
B|-----
G|-----
D|-----
A|-----
E|-----

							http://www.guitartabcreator.com
Instruments
{"strings":[[["_",".",".",3,2,".",3,2,3,".",3,".","|","|",".",".",3,2,3,".",".",2,3,".",".",".",3,".",".","."],["_",".",0,".",".",".",0,".",".",3,".",1,"|","|",".",0,".",".",".",".",".",".",".",".",".",3,".",".",".",1],["_",0,".",".",0,".",".",0,".",0,".",0,"|","|",0,".",".",".",".",".",0,".",".",".",0,".",".",".",0,"."],["_",".",".",2,".",".",".",".",".",".",".",".","|","|",".",".",2,".",".",2,".",".",".",".",".",".",".",".",".","."],["_",".",".",".",".",".",".",".",3,".",".",".","|","|",".",".",".",".",".",".",".",".",".",3,".",".",".",3,".","."],["_",".",".",".",".",".",".",".",".",".",".",".","|","|",".",".",".",".",".",".",".",".",".",".",".",".",".",".",".","."]],[[".",".",".",".",".",".",".","|",".",".",".",".",".",".",".",".",".",".",".",".",".",".",".",".",".",".",".",".",".",".",".","."],[".",".",".",1,3,0,".","|",".",".",".",".",".",".",".",".",".",".",0,".",".",0,"h",1,3,".",".",1,"p",0,".","."],[3,"/",4,".",0,".",2,"|",0,".",0,".",".",".",0,".","h",2,".",".",0,".",".",".",".",".",0,".",".",".",2,"."],[".",".",".",".",0,".",0,"|",".",4,".",".",2,".",".",".",".",".",".",2,".",".",".",".",".",0,".",".",".",".",0,4],[".",".",".",".",".",".",".","|",".",".",".",2,".",".",".",".",".",".",3,".",".",".",".",".",".",".",".",".",".",".",".","."],[3,".",".",".",".",".",".","|",".",".",0,".",".",".",".",".",".",".",".",".",".",".",".",".",3,".",".",".",".",".",".","."]],[[7,5,5,"h",7,"p",5,3,"\\",2,"|",3,".",".","_"],[".",".",".",".",".",".",".",".",".",".","|",".",".",".","_"],[".",".",7,".",".",".",".",".",".",".","|",".",".",0,"_"],[".",0,".",".",".",".",".",".",".",".","|",".",2,".","_"],[".",".",".",".",".",".",".",".",".",".","|",".",".",".","_"],[".",".",".",".",".",".",".",".",".",".","|",0,".",".","_"]],[[".",".","|",3,3,"/",5,"\\",3,"p",2,3,".",".",".",3,3,"/",5,"\\",3,"p",2,3,".",".",".",3,3,"/",5,"\\",3,"p",2,3,"/",5,7,"/",8,"/",10,7,".",".",".",".","."],[".",".","|",".",".",".",".",".",".",".",".",".",".",3,".",".",".",".",".",".",".",".",".",".",".",3,".",".",".",".",".",".",".",".",".",".",".",".",".",".",".",".",".",".",10,8,7,".","."],[".",2,"|",".",".",".",".",".",".",".",".",".",".",".",0,".",".",".",".",".",".",".",".",".",0,".",0,".",".",".",".",".",".",".",".",".",".",".",".",".",".",".",".",".",".",".",".",7,"."],[0,".","|",".",".",".",".",".",".",".",".",".",2,".",".",".",".",".",".",".",".",".",".",".",".",".",".",".",".",".",".",".",".",".",".",".",".",".",".",".",".",".",".",".",".",".",0,".",0],[".",".","|",".",".",".",".",".",".",".",".",".",".",".",".",".",".",".",".",".",".",".",".",3,".",".",".",".",".",".",".",".",".",".",".",".",".",".",".",".",".",".",".",".",".",".",".",".","."],[".",".","|",".",".",".",".",".",".",".",".",0,".",".",".",".",".",".",".",".",".",".",".",".",".",".",".",".",".",".",".",".",".",".",".",3,".",".",".",".",".",".",".",".",".",".",".",".","."]],[["_"],["_"],["_"],["_"],["_"],["_"]]],"numberofstrings":6,"notes":["E","B","G","D","A","E","B"],"capo":"2","stringnotes":["E4","B3","G3","D3","A2","E2"],"comments":["Stave 1:","Stave 2:","Repeat from S.1- Bar 2 - 3 column until S.2 - Bar 1 - 3 column ","Repeat from S.2 - Bar 2 - column 6 until the last line (2,0) in Stave 2","Repeat whole bar 2 3 times (in total it is played 4 times)"],"timing":[[null,"W","W","W","W","W","W","W","W","W","W","W","W",null,"W","W","W","W","W","W","W","W","W","W","W","W","W","W","W","W"],["W",null,"W","W","W","W","W","W","W","W","W","W","W","W","W","W","W","W","W","W","W",null,null,"W","W","W","W","W",null,"W","W","W"],["W","W","W",null,"W",null,"W","W",null,"W",null,"W","W","W"],["W","W",null,"W","W","W","W",null,"W",null,"W","W","W","W","W","W","W",null,"W",null,"W",null,"W","W","W","W","W","W","W",null,"W",null,"W",null,"W","W",null,"W","W",null,"W",null,"W","W","W","W","W","W","W"],[]],"timingvisible":false,"tabcounter":1,"stave":4,"totalstaves":5,"instrument":"6guitar","selectedtuning":"6_standard","version":"13"}

Member for

1 week 5 days
Submitted by dtophead on Sat, 2020-11-21 09:25