Sound will begin in 5 seconds

Solo Rendition 2

Chords
01234567891011121314151617181920212223
E
B
G
D
A
E
B
0 1 2 3 4 5 6 7 8 9 10 11 12 13 14 15 16 17 18 19 20 21 22 23
Song Science #1: How Pros Use 6 Chords to Write Hit Songs
(/) Slide Up  (\) Slide Down  (h) Hammer On  (p) Pull Off  (b) Bend (r) Release (v) Vibrato

Stave 1:

E|------------------------------------------------------------------------------------------
B|------------------------------------------------------------------------------------------
G|-----------------------------------------------------------------12--14b15r14--14p12------
D|--14--14--14--14--------------12--14/16--14--------------12--14-----------------------14--
A|--14--14--14--14------12--14-----------------14--12--14-----------------------------------
E|--12--12--12--12--15----------------------------------------------------------------------

Stave 2:

E|--------------------------------------------------------------------------------------------------
B|----------12--15--15b17r15--12-----------------15-----------------------------------------15--17--
G|--12--14------------------------14--12--14b16------16r14p12---------14--16b18r16--14--16----------
D|-------------------------------------------------------------14/16--------------------------------
A|--------------------------------------------------------------------------------------------------
E|--------------------------------------------------------------------------------------------------

Stave 3:

E|---------------------------------------------------------------------------
B|--17b19r17--15--13--15p13-----------------------------13--15b17r15p13------
G|---------------------------14--12--14b16r14v--12--14-------------------14--
D|---------------------------------------------------------------------------
A|---------------------------------------------------------------------------
E|---------------------------------------------------------------------------

Stave 4:

E|--
B|--
G|--
D|--
A|--
E|--

Stave 5:

E|--------------------------------------------------------------------
B|--15b17--17r15--13--------------------------------------------------
G|--------------------14--12--14--12------12--------------------------
D|------------------------------------14------14--12--14----------14--
A|--------------------------------------------------------12------14--
E|------------------------------------------------------------15--12--

http://www.guitartabcreator.com
Guitar Tab Creator is intended to store guitar tab created through the tool. It currently does not support in-line text editing. Any text you place in here will be lost. If you need to comment on your tab, please use the "Tab Notes" section located below.