Sound will begin in 5 seconds

Solo

Chords
01234567891011121314151617181920212223
E
B
G
D
A
E
B
0 1 2 3 4 5 6 7 8 9 10 11 12 13 14 15 16 17 18 19 20 21 22 23
Song Science #1: How Pros Use 6 Chords to Write Hit Songs
(/) Slide Up  (\) Slide Down  (h) Hammer On  (p) Pull Off  (b) Bend (r) Release (v) Vibrato

Stave 1:

E|------------------------------------------
B|------------------------------------------
G|-------------------2--0-----0-------------
D|--2-------------0--------2-----0----------
A|--2-------0--2--------------------2-------
E|--0--3b4-----------------------------3b4--

Stave 2:

E|--------------------5--3---------------------------------3--5b7--5--3--3---------------------
B|--------------------------5--3--0------------------3--5-------------------5--3---------------
G|-----------------------------------2--2--0--2b4/4-------------------------------4b6r4--0--2--
D|--2--------------0------------------------------------------------------------------------2--
A|--2-------2p0h2---------------------------------------------------------------------------0--
E|--0--3b4-------------------------------------------------------------------------------------

Stave 3:

E|------------------------------------------------------------------------------15--17--15------15------
B|-------------------------------------------------------------------15--15/17--------------17------17--
G|-----------------------------------------12--14--14b16r14--12--12-------------------------------------
D|-----------------12--------------12--14---------------------------------------------------------------
A|---------12--14------14--12--14-----------------------------------------------------------------------
E|--0--15-----------------------------------------------------------------------------------------------

Stave 4:

E|---------------------------------------------------------
B|--15-------------13h15b17r15p13--------------------------
G|------16\14--14------------------14----------12----------
D|-------------------------------------12--14------14--12--
A|---------------------------------------------------------
E|---------------------------------------------------------

Stave 5:

E|--------------------------------------------------------
B|-----------------------------------------0--3b5r3p1-----
G|----------12---------------0--------2b4--------------2--
D|--12--14------14--12\0--2-----2--0----------------------
A|--------------------------------------------------------
E|--------------------------------------------------------

Stave 6:

E|----------------3--5--3-----------------------
B|-------0--3--5-----------5--3--0--------------
G|--2b4-----------------------------2b4r2p0-----
D|-------------------------------------------2--
A|----------------------------------------------
E|----------------------------------------------

http://www.guitartabcreator.com
Guitar Tab Creator is intended to store guitar tab created through the tool. It currently does not support in-line text editing. Any text you place in here will be lost. If you need to comment on your tab, please use the "Tab Notes" section located below.