Sound will begin in 5 seconds

rain2

Chords
01234567891011121314151617181920212223
E
B
G
D
A
E
B
0 1 2 3 4 5 6 7 8 9 10 11 12 13 14 15 16 17 18 19 20 21 22 23
Song Science #1: How Pros Use 6 Chords to Write Hit Songs
(/) Slide Up  (\) Slide Down  (h) Hammer On  (p) Pull Off  (b) Bend (r) Release (v) Vibrato

Stave 1:

E|----------------------------------0---0--0---0---0--0--0--0---0---0---5--5--5-----5--5--5--5--
B|----7--6--5--5--3--2--3--2--2--2--11--9--12--11--4--9--9--10--9---9---0--0--0-----0--0--0--0--
G|----------4--4--4--4--3--2--4--4--0---0--0---0---0--8--8--11--10--10--0--0--0-----4--5--4--0--
D|----7--6--5--5--5--5--3--2--2--2--11--9--12--11--4--9--9--12--11--10--5--4--0-----0--0--0--0--
A|----------------------------------0---0--0---0---0--0--0--0---0---0---0--0--0--0--0--0--0--0--
E|----------------------------------------------------------------------------------------------

Stave 2:

E|----5--5--0---0---0--0--0--0--0--0--0--0--5--4h5p4--------4--2--4--4--2-----0--2--0h2p0--------
B|----0--0--10--9---2--2--3--3--4--4--5--5--4---------4-----2--2--2--2-----2--2------------0-----
G|----0--0--11--10--2--4--2--4--2--4--2--4--4------------4--2--2--2--2--------0---------------0--
D|----4--5--12--11--2--2--3--3--4--4--5--5--0---------------2--2--2--2--------0------------------
A|----0--0----------0--0--0--0--0--0--0--0------------------------------------2------------------
E|-----------------------------------------------------------------------------------------------

Stave 3:

E|--------------------------------0--0--
B|--2--2--2-----------------------7--6--
G|--2--4--4-----------------------0--0--
D|--2--2--2-----------------------7--6--
A|-----------0--0--0--0--0--0--0--0--0--
E|--------------------------------------

Stave 4:

E|-------------------2--2--0h2p0-------------
B|--2-----------------0------------2--10--9---
G|--2-----------------0------------2--11--10--
D|--2--2--4--5--2-----0------------2--12--11--
A|----0--0-----0--3--------------------------
E|--0--0--2--3--0-----------------------------

Stave 5:

E|--9--7-----7--5--------7-----5--5--4h5p4--------4--4--2--5--7--7--5--7--8--10--8--10--12--
B|--7-----7--5-----5--7-----5--4--4---------4-----2--2-----4--5--5--------7--8--------------
G|--7--------5-----------------4--4------------4--2--2-----4--5--5--------7--8--------------
D|--7--------5-----------------0--0---------------2--2-----4--5--5--------7--8--------------
A|-----------------------------------------------------------------------------------------
E|-----------------------------------------------------------------------------------------

Stave 6:

E|--------------0-----------7p5--------5--2p0-----------5p3-----------3-------
B|-----------5-----5-----5-------6-------------0-----0-------4-----4-----4----
G|--------6-----------6-------------7-------------0-------------5-------------
D|-----7--------------------0-------------0-------------0---------------------
A|--0-------------------------------------------------------------------------
E|----------------------------------------------------------------------------

Stave 7:

E|--5--3--0-----------------
B|--7--5--0--------0-----2--
G|--7--5--0--0--0--0--0--2--
D|--7--5--0--4--2--0--2--2--
A|--0--0--0--5--4--2--0--0--
E|-------------------------

http://www.guitartabcreator.com
Guitar Tab Creator is intended to store guitar tab created through the tool. It currently does not support in-line text editing. Any text you place in here will be lost. If you need to comment on your tab, please use the "Tab Notes" section located below.