Sound will begin in 5 seconds

Over Me Lead Guitar

01234567891011121314151617181920212223
E
B
G
D
A
E
B
0 1 2 3 4 5 6 7 8 9 10 11 12 13 14 15 16 17 18 19 20 21 22 23
(/) Slide Up  (\) Slide Down  (h) Hammer On  (p) Pull Off  (b) Bend (r) Release (v) Vibrato

Stave 1:

E|-------------------------------------
B|-------------------------------------
G|--11h12--12--12--11--7h9--9--7h---9--
D|-------------------------------------
A|-------------------------------------
E|-------------------------------------

Stave 2:

E|--------------14--15--14--
B|--15--17--15--------------
G|--------------------------
D|--------------------------
A|--------------------------
E|--------------------------

Stave 3:

E|------------------------------------------------------------------------------------------------------------------------------------------
B|------------------------------------------------------------------------------------------------------------------------------------------
G|-----------------12--14--12--14-----------------12--12h14--14--12\11--11--11--11--12\11--11--11--11--12\11--11--11--11--12h11--12h11------
D|--12--12h14--14------------------12--12h14--14----------------------------------------------------------------------------------------12--
A|------------------------------------------------------------------------------------------------------------------------------------------
E|------------------------------------------------------------------------------------------------------------------------------------------

Stave 4:

E|----------------------------------------------------------------------------------------------------------------------------
B|----------------------------------------------------------------------------------------------------------------------------
G|---------12-------------12-------------12-------------12h14--14--12h14--14--12h14--14--12h14--14--12h14--14--12h14--12------
D|--12h14------14--12h14------14--12h14------14--12h14--------------------------------------------------------------------14--
A|----------------------------------------------------------------------------------------------------------------------------
E|----------------------------------------------------------------------------------------------------------------------------

http://www.guitartabcreator.com
Guitar Tab Creator is intended to store guitar tab created through the tool. It currently does not support in-line text editing. Any text you place in here will be lost. If you need to comment on your tab, please use the "Tab Notes" section located below.