Sound will begin in 5 seconds

DIA

Chords
01234567891011121314151617181920212223
E
B
G
D
A
E
B
0 1 2 3 4 5 6 7 8 9 10 11 12 13 14 15 16 17 18 19 20 21 22 23
(/) Slide Up  (\) Slide Down  (h) Hammer On  (p) Pull Off  (b) Bend (r) Release (v) Vibrato

Stave 1:

E|--------------0h2--------------------0h2--------------------0h2--------------------0h2--------
B|--------3----------3-----------3----------3-----------3----------3-----------3----------3-----
G|-----2-----2----------2-----3-----3----------3-----4-----4----------4-----5-----5----------5--
D|--0----------------------0----------------------0----------------------0----------------------
A|----------------------------------------------------------------------------------------------
E|----------------------------------------------------------------------------------------------

Stave 2:

E|--------------0h2--------------------0-----------------------3h2--------------------2-----------
B|--------3----------3-----------0--------0-----0--------3----------3-----------3--------3-----3--
G|-----2-----2----------2-----2-----2--------2--------2-----2----------2-----2-----2--------2-----
D|--0---------------------------------------------------------------------------------------------
A|-------------------------4-----------------------3----------------------3-----------------------
E|------------------------------------------------------------------------------------------------

Stave 3:

E|--------------3----------------------------------------0-----------------5--------
B|--------3--------3-----3-------------------------0--------0-----0--3--------3--2--
G|-----0-----0--------0-----0h2h0---------------0-----0--------0--------4-----------
D|---------------------------------2h0-------------------------------5-----------5--
A|--2-----------------------------------2h1--1--------------------------------------
E|----------------------------------------------------------------------------------

Stave 4:

E|--------------0h2--------------------0-----------------------3p2-----------2-----------2--------
B|--------3----------3-----------0--------0-----0--------3----------3-----------3-----------3-----
G|-----2-----2----------2-----2-----2--------2--------2-----2----------2-----------2-----------2--
D|--0---------------------------------------------------------------------------------------------
A|-------------------------4-----------------------3----------------------3-----------3-----------
E|------------------------------------------------------------------------------------------------

Stave 5:

E|--------------------------5--7--5--------------------------0--------------------
B|--------------8--------------------8--5--------------0--------0-----0--2--3--5--
G|--------7--------7-----7-----------------7--0-----0-----0--------0--------------
D|-----5-----5--------5--------------------------------------------------2--------
A|-----------------------------------------------1--------------------------2--4--
E|--7-----------------------------------------------------------------------------

Stave 6:

E|--------------2p0--------------------------------------------2-----------------------3-----------
B|--------3----------3-----------------3-----------------3--------3-----3--------1--------1-----1--
G|-----2-----2----------2--------3--------3-----3-----2-----2--------2--------0-----0--------2-----
D|--0-------------------------2-----2--------2-----------------------------------------------------
A|-------------------------------------------------2-----------------------0-----------------------
E|-------------------------2-----------------------------------------------------------------------

http://www.guitartabcreator.com
Guitar Tab Creator is intended to store guitar tab created through the tool. It currently does not support in-line text editing. Any text you place in here will be lost. If you need to comment on your tab, please use the "Tab Notes" section located below.