Sound will begin in 5 seconds

Intervals Riff

01234567891011121314151617181920212223
E
B
G
D
A
E
B
0 1 2 3 4 5 6 7 8 9 10 11 12 13 14 15 16 17 18 19 20 21 22 23
Song Science #1: How Pros Use 6 Chords to Write Hit Songs
(/) Slide Up  (\) Slide Down  (h) Hammer On  (p) Pull Off  (b) Bend (r) Release (v) Vibrato

Stave 1:

E|------------------------------------------------------------------------------------------------------
B|----------------------17------16--14--------------------------------------------------17------16--14--
G|--------------13--14------14----------16--14--13------------------------------13--14------14----------
D|----------14--------------------------------------14--13------------------14--------------------------
A|--12--16--------------------------------------------------16--14--12--16------------------------------
E|------------------------------------------------------------------------------------------------------

Stave 2:

E|------------------------------------------------------------------------------------------------------
B|------------------------------------------------------17------16--14----------------------------------
G|--16--14--13------16--------------------------13--14------14----------16--14--13----------------------
D|--------------14------13------------------14--------------------------------------14--13--------------
A|--------------------------16--14--12--16--------------------------------------------------16--14--12--
E|------------------------------------------------------------------------------------------------------

Stave 3:

E|------------------------------------------------------------------------------------------------------
B|------------------17------16--14------------------------------------------------10------9-------------
G|----------13--14------14----------16--14--13-----------------------------9--11------11-----11------9--
D|------14--------------------------------------14--13-----------------11------------------------11-----
A|--16--------------------------------------------------14--12--9--12-----------------------------------
E|------------------------------------------------------------------------------------------------------

Stave 4:

E|------------------------------------------------------------------------------------
B|------------------------------------------13------12--10----------------------------
G|--9--11----------------------------9--10------10----------12--10--9-----------------
D|---------9--11-----------------10------------------------------------10--9----------
A|----------------12--11--8--12-----------------------------------------------12--10--
E|------------------------------------------------------------------------------------

http://www.guitartabcreator.com
Guitar Tab Creator is intended to store guitar tab created through the tool. It currently does not support in-line text editing. Any text you place in here will be lost. If you need to comment on your tab, please use the "Tab Notes" section located below.