Sound will begin in 5 seconds

"Guess I'm Doing Fine" - Beck

Chords
01234567891011121314151617181920212223
E
B
G
D
A
E
B
0 1 2 3 4 5 6 7 8 9 10 11 12 13 14 15 16 17 18 19 20 21 22 23
Song Science #1: How Pros Use 6 Chords to Write Hit Songs
(/) Slide Up  (\) Slide Down  (h) Hammer On  (p) Pull Off  (b) Bend (r) Release (v) Vibrato

Stave 1:

E|----0----0----0---------0----
B|----0----0----0--------------
G|----1----6----4--------------
D|----2----7----6--------------
A|----2----7----6--------------
E|----0----x----x---------0----

Stave 2:

E|----0----0----0----0----0---------
B|----0----0----0----0----0---------
G|----4----6----4----2----1---------
D|----5----7----5----4----2---------
A|----5----7----5----4----2---------
E|----x----x----x----x----x----0----

Stave 3:

E|----0----0----0----
B|----0----0----0----
G|----4----6----1----
D|----6----7----2----
A|----6----7----2----
E|----x----x----x----

Stave 4:

E|----0----0----0----2----0----0----
B|----0----0----0----3----2----0----
G|----4----6----1----2----2----1----
D|----6----7----2----0----2----2----
A|----6----7----2--------------2----
E|----x----x----x--------------x----

Stave 5:

E|----0----0----0----0----
B|----0----0----0----0----
G|----2----4----2----1----
D|----4----5----4----2----
A|----4----5----4----2----
E|----x----x----x----0----

http://www.guitartabcreator.com
Guitar Tab Creator is intended to store guitar tab created through the tool. It currently does not support in-line text editing. Any text you place in here will be lost. If you need to comment on your tab, please use the "Tab Notes" section located below.