Ascent (An Add-9 Etude)

Chords

01234567891011121314151617181920212223
E
B
G
D
A
E
B
0 1 2 3 4 5 6 7 8 9 10 11 12 13 14 15 16 17 18 19 20 21 22 23
(/) Slide Up  (\) Slide Down  (h) Hammer On  (p) Pull Off  (b) Bend (r) Release (v) Vibrato

Stave 1:

E|--------------------|-----------0--|--------------------------------------------|--------------------------------------------|--
B|--------5--------1--|--------5--1--|--------------------------------------------|--------------------------------------------|--
G|-----6--------2-----|-----6-----2--|--------------------6--9--6-----------------|--------------------6--9--6-----------------|--
D|--9--------3--------|--9--------3--|--------9--7--6--7-----------7--6-----------|--------9--7--6--7-----------7--6-----------|--
A|--------------------|--------------|-----7-----------------------------7--------|-----7-----------------------------7--------|--
E|--------------------|--------------|--5-----------------------------------9--7--|--5-----------------------------------9--7--|--

Stave 2:

E|--------------------------------------------------|-----------------------------------------------|--
B|--------------------------------------------------|--------------------------------------5--6--8--|--
G|--------------------2--5--9--5-----------------5--|--------------------2--5--9--5-----------------|--
D|--------5--3--2--3--------------7-----------7-----|--------5--3--2--3--------------7--------------|--
A|-----3-----------------------------8--7--8--------|-----3-----------------------------8-----------|--
E|--1-----------------------------------------------|--1--------------------------------------------|--

Stave 3:

E|-----------------------------|-------------------------|----------------------------------|----------------------------------|--
B|-----------------------------|-------------------------|----------------------------------|----------------------------------|--
G|---------------7-------------|---------------7---------|------------------14--------------|------------------14--------------|--
D|--------11--------11-----11--|--------11-----------11--|----------18----------18------18--|----------18----------18------18--|--
A|-----9------9---------9------|-----9------9-----9------|------16------16----------16------|------16------16----------16------|--
E|--7--------------------------|--7----------------------|--14------------------------------|--14------------------------------|--

Stave 4:

E|--------------------------|--------------------------|--------------------------|--------------------------|--
B|--------------------------|--------------------------|--------------------------|--------------------------|--
G|--------------2-----------|--------------2-----------|--------------4-----------|--------------4-----------|--
D|--------6--------6-----6--|--------6--------6-----6--|--------7--------7-----7--|--------7--------7-----7--|--
A|-----4-----4--------4-----|-----4-----4--------4-----|-----5-----5--------5-----|-----5-----5--------5-----|--
E|--2-----------------------|--2-----------------------|--3-----------------------|--3-----------------------|--

Stave 5:

E|---------------------------|-----7--10--13--|--
B|---------------------------|--9-------------|--
G|--------------------7--10--|----------------|--
D|--------------6--9---------|----------------|--
A|--------5--8---------------|----------------|--
E|--4--7---------------------|----------------|--

							http://www.guitartabcreator.com
Tab Notes
Use lots of delay
Instruments
{"strings":[[[".",".",".",".",".",".","|",".",".",".",0,"|",".",".",".",".",".",".",".",".",".",".",".",".",".",".","|",".",".",".",".",".",".",".",".",".",".",".",".",".",".","|"],[".",".",5,".",".",1,"|",".",".",5,1,"|",".",".",".",".",".",".",".",".",".",".",".",".",".",".","|",".",".",".",".",".",".",".",".",".",".",".",".",".",".","|"],[".",6,".",".",2,".","|",".",6,".",2,"|",".",".",".",".",".",".",6,9,6,".",".",".",".",".","|",".",".",".",".",".",".",6,9,6,".",".",".",".",".","|"],[9,".",".",3,".",".","|",9,".",".",3,"|",".",".",9,7,6,7,".",".",".",7,6,".",".",".","|",".",".",9,7,6,7,".",".",".",7,6,".",".",".","|"],[".",".",".",".",".",".","|",".",".",".",".","|",".",7,".",".",".",".",".",".",".",".",".",7,".",".","|",".",7,".",".",".",".",".",".",".",".",".",7,".",".","|"],[".",".",".",".",".",".","|",".",".",".",".","|",5,".",".",".",".",".",".",".",".",".",".",".",9,7,"|",5,".",".",".",".",".",".",".",".",".",".",".",9,7,"|"]],[[".",".",".",".",".",".",".",".",".",".",".",".",".",".",".",".","|",".",".",".",".",".",".",".",".",".",".",".",".",".",".",".","|"],[".",".",".",".",".",".",".",".",".",".",".",".",".",".",".",".","|",".",".",".",".",".",".",".",".",".",".",".",".",5,6,8,"|"],[".",".",".",".",".",".",2,5,9,5,".",".",".",".",".",5,"|",".",".",".",".",".",".",2,5,9,5,".",".",".",".",".","|"],[".",".",5,3,2,3,".",".",".",".",7,".",".",".",7,".","|",".",".",5,3,2,3,".",".",".",".",7,".",".",".",".","|"],[".",3,".",".",".",".",".",".",".",".",".",8,7,8,".",".","|",".",3,".",".",".",".",".",".",".",".",".",8,".",".",".","|"],[1,".",".",".",".",".",".",".",".",".",".",".",".",".",".",".","|",1,".",".",".",".",".",".",".",".",".",".",".",".",".",".","|"]],[[".",".",".",".",".",".",".",".","|",".",".",".",".",".",".",".","|",".",".",".",".",".",".",".",".","|",".",".",".",".",".",".",".",".","|"],[".",".",".",".",".",".",".",".","|",".",".",".",".",".",".",".","|",".",".",".",".",".",".",".",".","|",".",".",".",".",".",".",".",".","|"],[".",".",".",".",7,".",".",".","|",".",".",".",".",7,".",".","|",".",".",".",".",14,".",".",".","|",".",".",".",".",14,".",".",".","|"],[".",".",11,".",".",11,".",11,"|",".",".",11,".",".",".",11,"|",".",".",18,".",".",18,".",18,"|",".",".",18,".",".",18,".",18,"|"],[".",9,".",9,".",".",9,".","|",".",9,".",9,".",9,".","|",".",16,".",16,".",".",16,".","|",".",16,".",16,".",".",16,".","|"],[7,".",".",".",".",".",".",".","|",7,".",".",".",".",".",".","|",14,".",".",".",".",".",".",".","|",14,".",".",".",".",".",".",".","|"]],[[".",".",".",".",".",".",".",".","|",".",".",".",".",".",".",".",".","|",".",".",".",".",".",".",".",".","|",".",".",".",".",".",".",".",".","|"],[".",".",".",".",".",".",".",".","|",".",".",".",".",".",".",".",".","|",".",".",".",".",".",".",".",".","|",".",".",".",".",".",".",".",".","|"],[".",".",".",".",2,".",".",".","|",".",".",".",".",2,".",".",".","|",".",".",".",".",4,".",".",".","|",".",".",".",".",4,".",".",".","|"],[".",".",6,".",".",6,".",6,"|",".",".",6,".",".",6,".",6,"|",".",".",7,".",".",7,".",7,"|",".",".",7,".",".",7,".",7,"|"],[".",4,".",4,".",".",4,".","|",".",4,".",4,".",".",4,".","|",".",5,".",5,".",".",5,".","|",".",5,".",5,".",".",5,".","|"],[2,".",".",".",".",".",".",".","|",2,".",".",".",".",".",".",".","|",3,".",".",".",".",".",".",".","|",3,".",".",".",".",".",".",".","|"]],[[".",".",".",".",".",".",".",".","|",".",7,10,13,"|"],[".",".",".",".",".",".",".",".","|",9,".",".",".","|"],[".",".",".",".",".",".",7,10,"|",".",".",".",".","|"],[".",".",".",".",6,9,".",".","|",".",".",".",".","|"],[".",".",5,8,".",".",".",".","|",".",".",".",".","|"],[4,7,".",".",".",".",".",".","|",".",".",".",".","|"]]],"numberofstrings":6,"notes":["E","B","G","D","A","E","B"],"capo":0,"stringnotes":["E4","B3","G3","D3","A2","E2"],"comments":["Stave 1:","Stave 2:","Stave 3:","Stave 4:","Stave 5:"],"timing":[["W","W","W","W","W","W",null,"W","W","W","W",null,"W","W","W","W","W","W","W","W","W","W","W","W","W","W",null,"W","W","W","W","W","W","W","W","W","W","W","W","W","W"],["W","W","W","W","W","W","W","W","W","W","W","W","W","W","W","W",null,"W","W","W","W","W","W","W","W","W","W","W","W","W","W","W"],["W","W","W","W","W","W","W","W",null,"W","W","W","W","W","W","W",null,"W","W","W","W","W","W","W","W",null,"W","W","W","W","W","W","W","W"],["W","W","W","W","W","W","W","W",null,"W","W","W","W","W","W","W","W",null,"W","W","W","W","W","W","W","W",null,"W","W","W","W","W","W","W","W"],["W","W","W","W","W","W","W","W",null,"W","W","W","W"]],"timingvisible":false,"tabcounter":14,"stave":4,"totalstaves":5,"instrument":"6guitar","selectedtuning":"6_standard","version":"13"}
Submitted by DrDres on Sat, 2020-08-01 18:52