Sound will begin in 5 seconds

Sweet Home Chicago

Chords
01234567891011121314151617181920212223
E
B
G
D
A
E
B
0 1 2 3 4 5 6 7 8 9 10 11 12 13 14 15 16 17 18 19 20 21 22 23
Song Science #1: How Pros Use 6 Chords to Write Hit Songs
(/) Slide Up  (\) Slide Down  (h) Hammer On  (p) Pull Off  (b) Bend (r) Release (v) Vibrato

Stave 1:

E|----------0---------------------0--7--9--7--0--
B|----------0---------------------0-----------0--
G|--7h9--------7h9--7----------------7--9--7-----
D|---------------------9\7--5--------------------
A|-----------------------------------------------
E|-------0---------------------0-----------------

Stave 2:

E|----------------------------------0--0--7--9--7--0--
B|--8-----8-----8-------------------0--0-----------0--
G|-----9-----9-----9----------------------7--9--7-----
D|--------------------9\7--5--------------------------
A|----------------------------7-----------------------
E|-------------------------------0--------------------

Stave 3:

E|-----------------------0--
B|-----------------------0--
G|--------------------------
D|--------------------------
A|-----1--2-----1--2--------
E|--0--------0--------0-----

Stave 4:

E|-----------7--6--5-----5-----------------0--0--0--0--0--0--0--0--------
B|-----5--------------8-----8--5-----5-----0--------------------------0--
G|--6-----6-----------------------6--------------------------------2-----
D|-----------------------------------------------------------------------
A|--------------------------------------------5--5--4--4--3--3--2--------
E|--------------------------------------0--------------------------------

http://www.guitartabcreator.com
Guitar Tab Creator is intended to store guitar tab created through the tool. It currently does not support in-line text editing. Any text you place in here will be lost. If you need to comment on your tab, please use the "Tab Notes" section located below.