Sound will begin in 5 seconds

Mississippi Queen

01234567891011121314151617181920212223
E
B
G
D
A
E
B
0 1 2 3 4 5 6 7 8 9 10 11 12 13 14 15 16 17 18 19 20 21 22 23
Song Science #1: How Pros Use 6 Chords to Write Hit Songs
(/) Slide Up  (\) Slide Down  (h) Hammer On  (p) Pull Off  (b) Bend (r) Release (v) Vibrato

Stave 1:

E|---------------
B|---------------
G|---------------
D|--------5------
A|-----------7v--
E|--5--7---------

Stave 2:

E|-----------------------------------------------------------------------
B|-----------------------------------------------------------------------
G|-----------------------------------------------------------------------
D|-----9-----7v--9---------7-----5b6-------------------------------------
A|--------9-------------------7------------7-----5v--7---------------7v--
E|--7-------------------5---------------0-----7-----------0--3b4--0------

Stave 3:

E|--------------------------------
B|--------------------------------
G|--------------------------------
D|-----7-----5v--7------------7v--
A|--------7-----------0--3b4------
E|--5-----------------------------

Stave 4:

E|---------19------------------------------------------------------------------
B|--19b21------19b21r19--17--------------------17--19--17----------17--19--17--
G|---------------------------18--16----16--18--------------16--18--------------
D|-----------------------------------------------------------------------------
A|-----------------------------------------------------------------------------
E|-----------------------------------------------------------------------------

Stave 5:

E|-------------21-------------------------------
B|--17--19b21------19b21r19--17------17--20p17--
G|-------------------------------18-------------
D|----------------------------------------------
A|----------------------------------------------
E|----------------------------------------------

http://www.guitartabcreator.com
Guitar Tab Creator is intended to store guitar tab created through the tool. It currently does not support in-line text editing. Any text you place in here will be lost. If you need to comment on your tab, please use the "Tab Notes" section located below.