Sound will begin in 5 seconds

Kirk Fletcher Licks

01234567891011121314151617181920212223
E
B
G
D
A
E
B
0 1 2 3 4 5 6 7 8 9 10 11 12 13 14 15 16 17 18 19 20 21 22 23
Song Science #1: How Pros Use 6 Chords to Write Hit Songs
(/) Slide Up  (\) Slide Down  (h) Hammer On  (p) Pull Off  (b) Bend (r) Release (v) Vibrato

Stave 1:

E|--------------------------
B|--12b13--10--12------10v--
G|-----------------11-------
D|--------------------------
A|--------------------------
E|--------------------------

Stave 2:

E|--10b11--10------------------
B|-------------13b15--13--10v--
G|-----------------------------
D|-----------------------------
A|-----------------------------
E|-----------------------------

Stave 3:

E|--10b12r10p8-------
B|--------------10v--
G|-------------------
D|-------------------
A|-------------------
E|-------------------

Stave 4:

E|--13b15--13--10v--
B|------------------
G|------------------
D|------------------
A|------------------
E|------------------

Stave 5:

E|--12/14b15--12v--14--
B|---------------------
G|---------------------
D|---------------------
A|---------------------
E|---------------------

Stave 6:

E|----------------------------
B|--10--10--12b13b14r12--10v--
G|----------------------------
D|----------------------------
A|----------------------------
E|----------------------------

Stave 7:

E|---------------------------------------
B|--8b10--8--5---------------------------
G|--------------7b9r7--5b6---------------
D|--------------------------7p5----------
A|-------------------------------7/5--3--
E|---------------------------------------

Stave 8:

E|--10/12--15p12r15p12r15p12--10h11p10----------
B|--------------------------------------13p10v--
G|----------------------------------------------
D|----------------------------------------------
A|----------------------------------------------
E|----------------------------------------------

Stave 9:

E|----------5--------8-------
B|-------5-----8/10-----10v--
G|--7b9----------------------
D|---------------------------
A|---------------------------
E|---------------------------

Stave 10:

E|--------------------------
B|--------------------------
G|--7b8--5--7-----5---------
D|-------------7-----5--7v--
A|--------------------------
E|--------------------------

http://www.guitartabcreator.com
Guitar Tab Creator is intended to store guitar tab created through the tool. It currently does not support in-line text editing. Any text you place in here will be lost. If you need to comment on your tab, please use the "Tab Notes" section located below.