Sound will begin in 5 seconds

Jumpin Jack Flash

Chords
01234567891011121314151617181920212223
E
B
G
D
A
E
B
0 1 2 3 4 5 6 7 8 9 10 11 12 13 14 15 16 17 18 19 20 21 22 23
Song Science #1: How Pros Use 6 Chords to Write Hit Songs
(/) Slide Up  (\) Slide Down  (h) Hammer On  (p) Pull Off  (b) Bend (r) Release (v) Vibrato

Stave 1:

E|--10--14--12--10--5--9--7--5-----10--9--7--7--10--9--7--
B|--10--------------5------------------------7------------
G|--11--------------6------------------------8------------
D|--12--------------7------------------------9------------
A|--12--------------7------------------------9------------
E|--10--------------5-----------0------------7------------

Stave 2:

E|-------4-----2-----0-----
B|----------0-----0-----0--
G|--4--4--------------------
D|--4--4--------------------
A|-------------------------
E|-------------------------

Stave 3:

E|--12--10--9--7--
B|----------------
G|----------------
D|----------------
A|----------------
E|----------------

http://www.guitartabcreator.com
Guitar Tab Creator is intended to store guitar tab created through the tool. It currently does not support in-line text editing. Any text you place in here will be lost. If you need to comment on your tab, please use the "Tab Notes" section located below.