Sound will begin in 5 seconds

Cold As Ice Solo

01234567891011121314151617181920212223
E
B
G
D
A
E
B
0 1 2 3 4 5 6 7 8 9 10 11 12 13 14 15 16 17 18 19 20 21 22 23
Song Science #1: How Pros Use 6 Chords to Write Hit Songs
(/) Slide Up  (\) Slide Down  (h) Hammer On  (p) Pull Off  (b) Bend (r) Release (v) Vibrato

Stave 1:

E|--------------------------------------------6--5--6--10--9--10/13/17--13------15b17--13--------------
B|-----------------------------------6--5--6--------------------------------15-------------15--13--15--
G|--------------------------7--6--7--------------------------------------------------------------------
D|-----------------8--7--8-----------------------------------------------------------------------------
A|--------8--7--8--------------------------------------------------------------------------------------
E|--5--6-----------------------------------------------------------------------------------------------

Stave 2:

E|--------------------------------------------6--5--6/10--10--8------------------9h10--12h13--
B|-----------------------------------6--5--6---------------------11--10v--10h11---------------
G|--------------------------7--6--7-----------------------------------------------------------
D|-----------------8--7--8--------------------------------------------------------------------
A|--------8--7--8-----------------------------------------------------------------------------
E|--5--6--------------------------------------------------------------------------------------

http://www.guitartabcreator.com
Guitar Tab Creator is intended to store guitar tab created through the tool. It currently does not support in-line text editing. Any text you place in here will be lost. If you need to comment on your tab, please use the "Tab Notes" section located below.