Sound will begin in 5 seconds

Fallin' INTRO - ZHIEND

Chords
01234567891011121314151617181920212223
E
B
G
D
A
E
B
0 1 2 3 4 5 6 7 8 9 10 11 12 13 14 15 16 17 18 19 20 21 22 23
Song Science #1: How Pros Use 6 Chords to Write Hit Songs
(/) Slide Up  (\) Slide Down  (h) Hammer On  (p) Pull Off  (b) Bend (r) Release (v) Vibrato

Stave 1:

E|----------------2---------------------2--------------
B|---------0h2---------2---------0h2---------2----0----
G|-----------------------------------------------------
D|----2---------------------2--------------------------
A|-----------------------------------------------------
E|-----------------------------------------------------

Stave 2:

E|----------------------------------
B|-------------------2--------------
G|--------------3---------3---------
D|---------4-------------------4----
A|----------------------------------
E|----2-----------------------------

Stave 3:

E|----------------------------------
B|--------------0-------------------
G|------------------------3---------
D|---------4---------4---------4----
A|----------------------------------
E|----4-----------------------------

Stave 4:

E|----------------2---------------------2--------------
B|---------0h2---------2---------0h2---------2----0----
G|-----------------------------------------------------
D|----2---------------------2--------------------------
A|-----------------------------------------------------
E|-----------------------------------------------------

Stave 5:

E|----------------------------------
B|-------------------2--------------
G|--------------3---------3---------
D|---------4-------------------4----
A|----------------------------------
E|----2-----------------------------

Stave 6:

E|----2-----------2----
B|----4----------------
G|----4----3\4---------
D|----4----------------
A|----2----1-----------
E|---------------------

Stave 7:

E|----------------2---------------------2--------------
B|---------0h2---------2---------0h2---------2----0----
G|-----------------------------------------------------
D|----2---------------------2--------------------------
A|-----------------------------------------------------
E|-----------------------------------------------------

Stave 8:

E|----------------------------------
B|-------------------2--------------
G|--------------3---------3---------
D|---------4-------------------4----
A|----------------------------------
E|----2-----------------------------

Stave 9:

E|----------------------------------
B|--------------0-------------------
G|------------------------3---------
D|---------4---------4---------4----
A|----------------------------------
E|----4-----------------------------

Stave 10:

E|----------------2---------------------4p2---------
B|---------0h2---------2---------0h2-----------2----
G|--------------------------------------------------
D|----2---------------------2-----------------------
A|--------------------------------------------------
E|--------------------------------------------------

Stave 11:

E|---------------------------------------
B|--------------2-------------------0----
G|------------------------3---------4----
D|---------4---------4---------4----4----
A|----------------------------------2----
E|----2----------------------------------

http://www.guitartabcreator.com
Guitar Tab Creator is intended to store guitar tab created through the tool. It currently does not support in-line text editing. Any text you place in here will be lost. If you need to comment on your tab, please use the "Tab Notes" section located below.