Sound will begin in 5 seconds

Electric guitar main (stave, 1,2).acoustic second guidar (stave,3,4).

Chords
01234567891011121314151617181920212223
E
B
G
D
A
E
B
0 1 2 3 4 5 6 7 8 9 10 11 12 13 14 15 16 17 18 19 20 21 22 23
Song Science #1: How Pros Use 6 Chords to Write Hit Songs
(/) Slide Up  (\) Slide Down  (h) Hammer On  (p) Pull Off  (b) Bend (r) Release (v) Vibrato

Stave 1:

E|-----------------|--------------------|-----------------|--------------------|--------------|--
B|-----------------|--------------------|-----------------|--------------------|--------------|--
G|-----------------|--------------------|-----------------|--------------------|--------------|--
D|-----------------|--------------------|-----------------|--------------------|--------------|--
A|--9--9-----9--9--|--12--12--11--7--9--|--9--9-----9--9--|--12--12--11--7-----|--7-----5--4--|--
E|--7--7-----7--7--|--10--10--9---5--7--|--7--7-----7--7--|--10--10--9---5--7--|--5-----3--2--|--

Stave 2:

E|--------------|--------------|--------------|--------------|--------------|--------------|--
B|--------------|--------------|--------------|--------------|--------------|--------------|--
G|--------------|--------------|--------------|--------------|--------------|--------------|--
D|--------------|--------------|--------------|--------------|--------------|--------------|--
A|--2--2--2--2--|--2--2--2--2--|--5--4--------|--------------|--------------|--5--4--7--5--|--
E|--0--0--0--0--|--0--0--0--0--|--3--2--------|--------------|--------------|--3--2--5--3--|--

Stave 3:

E|--------------------------------------------|--------------|--------------|--------------|--
B|--------------------------------------------|--------------|--------------|--------------|--
G|--------------------------------------------|--------------|--------------|--------------|--
D|--------------------------------------------|--------------|--------------|--------------|--
A|--------------------------------------------|--------------|--------------|--------------|--
E|--------------------------------------------|--0--0--0--0--|--0--0--0--0--|--------------|--

Stave 4:

E|--------------|--------------|--------------|--------------------|--
B|--------------|--------------|--------------|--------------------|--
G|--------------|--------------|--------------|--------------------|--
D|--------------|--------------|--------------|--------------------|--
A|--6--5--------|--6--5--------|--------------|--------------------|--
E|--------6--5--|--------6--5--|--3--1--0--2--|--2--2--0--2--2--0--|--

http://www.guitartabcreator.com
Guitar Tab Creator is intended to store guitar tab created through the tool. It currently does not support in-line text editing. Any text you place in here will be lost. If you need to comment on your tab, please use the "Tab Notes" section located below.