Ejercicio de Habilidad

Chords

01234567891011121314151617181920212223
E
B
G
D
A
E
B
0 1 2 3 4 5 6 7 8 9 10 11 12 13 14 15 16 17 18 19 20 21 22 23
(/) Slide Up  (\) Slide Down  (h) Hammer On  (p) Pull Off  (b) Bend (r) Release (v) Vibrato

Stave 1:

E|--------------------------------------------------
B|--------------------------------------------------
G|--------------------------------------------------
D|--------------------------------3--4--1--2--------
A|--------3--4--1--2--------1--2--------------3--4--
E|--1--2--------------3--4--------------------------

Stave 2:

E|--------------------------------------------------
B|--------------------------------3--4--1--2--------
G|--------3--4--1--2--------1--2--------------3--4--
D|--1--2--------------3--4--------------------------
A|--------------------------------------------------
E|--------------------------------------------------

Stave 3:

E|--------3--4--1--2--------
B|--1--2--------------3--4--
G|--------------------------
D|--------------------------
A|--------------------------
E|--------------------------

Stave 4:

E|--------4--5--2--3--------------------------------
B|--2--3--------------4--5--------4--5--2--3--------
G|--------------------------2--3--------------4--5--
D|--------------------------------------------------
A|--------------------------------------------------
E|--------------------------------------------------

							http://www.guitartabcreator.com
Instruments
{"strings":[[[".",".",".",".",".",".",".",".",".",".",".",".",".",".",".","."],[".",".",".",".",".",".",".",".",".",".",".",".",".",".",".","."],[".",".",".",".",".",".",".",".",".",".",".",".",".",".",".","."],[".",".",".",".",".",".",".",".",".",".",3,4,1,2,".","."],[".",".",3,4,1,2,".",".",1,2,".",".",".",".",3,4],[1,2,".",".",".",".",3,4,".",".",".",".",".",".",".","."]],[[".",".",".",".",".",".",".",".",".",".",".",".",".",".",".","."],[".",".",".",".",".",".",".",".",".",".",3,4,1,2,".","."],[".",".",3,4,1,2,".",".",1,2,".",".",".",".",3,4],[1,2,".",".",".",".",3,4,".",".",".",".",".",".",".","."],[".",".",".",".",".",".",".",".",".",".",".",".",".",".",".","."],[".",".",".",".",".",".",".",".",".",".",".",".",".",".",".","."]],[[".",".",3,4,1,2,".","."],[1,2,".",".",".",".",3,4],[".",".",".",".",".",".",".","."],[".",".",".",".",".",".",".","."],[".",".",".",".",".",".",".","."],[".",".",".",".",".",".",".","."]],[[".",".",4,5,2,3,".",".",".",".",".",".",".",".",".","."],[2,3,".",".",".",".",4,5,".",".",4,5,2,3,".","."],[".",".",".",".",".",".",".",".",2,3,".",".",".",".",4,5],[".",".",".",".",".",".",".",".",".",".",".",".",".",".",".","."],[".",".",".",".",".",".",".",".",".",".",".",".",".",".",".","."],[".",".",".",".",".",".",".",".",".",".",".",".",".",".",".","."]]],"numberofstrings":6,"notes":["E","B","G","D","A","E","B"],"capo":0,"stringnotes":["E4","B3","G3","D3","A2","E2"],"comments":["Stave 1:","Stave 2:","Stave 3:","Stave 4:"],"timing":[[null,null,null,null,null,null,null,null,null,null,null,null,null,null,null,null],[null,null,null,null,null,null,null,null,null,null,null,null,null,null,null,null],[null,null,null,null,null,null,null,null],[null,null,null,null,null,null,null,null,null,null,null,null,null,null,null,null]],"timingvisible":false,"tabcounter":16,"stave":3,"totalstaves":4,"instrument":"6guitar","selectedtuning":"6_standard","version":"13"}

Member for

1 week 3 days
Submitted by Drabangel117 on Sat, 2020-11-21 00:36