Sound will begin in 5 seconds

Ramble On

01234567891011121314151617181920212223
E
B
G
D
A
E
B
0 1 2 3 4 5 6 7 8 9 10 11 12 13 14 15 16 17 18 19 20 21 22 23
Song Science #1: How Pros Use 6 Chords to Write Hit Songs
(/) Slide Up  (\) Slide Down  (h) Hammer On  (p) Pull Off  (b) Bend (r) Release (v) Vibrato

Stave 1:

E|---------------------------------------------
B|---------------------------------------------
G|---------------------------------------------
D|---------------------------------------------
A|-----------9--7-----11--9--7-----------7-----
E|--0--7--5--------0------------9--7--9-----9--

Stave 2:

E|---------0----------------------------
B|------------0-------------------------
G|--12p11--------9h11--7p6--------------
D|--------------------------7--7--6-----
A|-----------------------------------7--
E|--------------------------------------

Stave 3:

E|--10--9--10--10--9--10--9--10--9--10--12--10--9--10--
B|-----------------------------------------------------
G|-----------------------------------------------------
D|-----------------------------------------------------
A|-----------------------------------------------------
E|-----------------------------------------------------

Stave 4:

E|--10--9------9---------------------------
B|---------12-----12--10--9--10--9---------
G|----------------------------------11--9--
D|-----------------------------------------
A|-----------------------------------------
E|-----------------------------------------

Stave 5:

E|--9--7------------9--7------------9--7------9--7---------------------------
B|--------10--7-----------10--7-----------10--------10--7-----10--9--10--10--
G|---------------9---------------9-------------------------9-----------------
D|---------------------------------------------------------------------------
A|---------------------------------------------------------------------------
E|---------------------------------------------------------------------------

http://www.guitartabcreator.com
Guitar Tab Creator is intended to store guitar tab created through the tool. It currently does not support in-line text editing. Any text you place in here will be lost. If you need to comment on your tab, please use the "Tab Notes" section located below.