Sound will begin in 5 seconds

People are strange Intro-Break

01234567891011121314151617181920212223
E
B
G
D
A
E
B
0 1 2 3 4 5 6 7 8 9 10 11 12 13 14 15 16 17 18 19 20 21 22 23
Song Science #1: How Pros Use 6 Chords to Write Hit Songs
(/) Slide Up  (\) Slide Down  (h) Hammer On  (p) Pull Off  (b) Bend (r) Release (v) Vibrato

Stave 1:

E|--------------------------------------------------------------------
B|--------------------------------------------------------------------
G|-----------0-----------------2--0-----------------2--0--------------
D|--------2-----2-----------2--------2-----------2--------2-----------
A|-----2-----------2--1--0--------------2--1--0--------------0--1--2--
E|--0-----------------------------------------------------------------

Stave 2:

E|--------------------------------------------------------------------
B|--------------------------------------------------------------------
G|--------------------------------0-----------------2--0--------------
D|--------1--------------------2-----2-----------2--------2-----------
A|-----2--------2--0--------2-----------2--1--0--------------2--1--0--
E|--2--------0--------3--0--------------------------------------------

Stave 3:

E|-----------------------------------
B|-----------------------------------
G|-----2--0--------------------------
D|--2--------2-----------------1--2--
A|--------------0--1--2-----2--------
E|-----------------------2-----------

Stave 4:

E|--5------------------------15--12----------------------------------
B|-----0h3p0-----12--15--12----------15--12-----------------7--7--7--
G|------------2------------------------------15--14--12--9-----------
D|-------------------------------------------------------------------
A|-------------------------------------------------------------------
E|-------------------------------------------------------------------

Stave 5:

E|--------------------------------------------
B|--0h4p0-------------------3-----------------
G|---------2--0--2--0--3/4-----2--0-----------
D|-----------------------------------2--0--2--
A|--------------------------------------------
E|--------------------------------------------

Stave 6:

E|--
B|--
G|--
D|--
A|--
E|--

http://www.guitartabcreator.com
Guitar Tab Creator is intended to store guitar tab created through the tool. It currently does not support in-line text editing. Any text you place in here will be lost. If you need to comment on your tab, please use the "Tab Notes" section located below.