Sound will begin in 5 seconds

Norweigan Wood

Chords
01234567891011121314151617181920212223
E
B
G
D
A
E
B
0 1 2 3 4 5 6 7 8 9 10 11 12 13 14 15 16 17 18 19 20 21 22 23
Song Science #1: How Pros Use 6 Chords to Write Hit Songs
(/) Slide Up  (\) Slide Down  (h) Hammer On  (p) Pull Off  (b) Bend (r) Release (v) Vibrato

Stave 1:

E|------------------------------0--0--0----0--------
B|--10--------10-----8--7--7----6--3--3h5--2--4--5--
G|--11--------11h12--9--7--7h9--7--4--4----2--5--6--
D|--0---------0------0--0---------------------------
A|--------------------------------------------------
E|--------------------------------------------------

Stave 2:

E|--2--3--2--0--------0-------------------------
B|--3-----------3--1-----1--3-------------------
G|--2--------------------------4/5--4--2--------
D|----------------------------------------0-----
A|----------------------------------------------
E|-------------------------------------------0--

Stave 3:

E|--0---0---0---0--0--0--0--0--0--0--0--0--0--
B|--10--10--10--8--7--5--8--2--3--2--5--2--3--
G|--11--12--11--9--7--6--9--0--0--0--0--0--0--
D|--0---0---0---0--0--0--0--2--4--2--5--2--4--
A|--0---0---0---0--0--0--0--0--0--0--0--0--0--
E|--0---0---0---0--0--0--0--0--0--0--0--0--0--

Stave 4:

E|--------------------------------------------------------------------
B|-----5--6--8--6--5--6--8--6--5--6--8--6--5--6--8--6--5--------------
G|--7-----------------------------------------------------7\4--4h5p4--
D|--------------------------------------------------------------------
A|--------------------------------------------------------------------
E|--------------------------------------------------------------------

Stave 5:

E|----------------------------------------------------------------
B|-----5--6--8--6--5--6--8--6--5--6--8--6--5--6--5----------------
G|--7-----------------------------------------------4h5--6--7--6--
D|----------------------------------------------------------------
A|----------------------------------------------------------------
E|----------------------------------------------------------------

Stave 6:

E|--------------5--7--5--|-----------------------
B|-----5--7--8-----------|-----------------------
G|--7--------------------|-----------0--2--4--2--
D|-----------------------|--0--2--4--------------
A|-----------------------|-----------------------
E|-----------------------|-----------------------

Stave 7:

E|-----------------------|--2--
B|--------3----3----3----|--3--
G|--------0----0----0----|--2--
D|--------0----0----0----|--0--
A|--0--2--3--0h2--0h1--2h|--0--
E|-----------------------|--0--

http://www.guitartabcreator.com
Guitar Tab Creator is intended to store guitar tab created through the tool. It currently does not support in-line text editing. Any text you place in here will be lost. If you need to comment on your tab, please use the "Tab Notes" section located below.