Sound will begin in 5 seconds

Jessica

Chords
01234567891011121314151617181920212223
E
B
G
D
A
E
B
0 1 2 3 4 5 6 7 8 9 10 11 12 13 14 15 16 17 18 19 20 21 22 23
Song Science #1: How Pros Use 6 Chords to Write Hit Songs
(/) Slide Up  (\) Slide Down  (h) Hammer On  (p) Pull Off  (b) Bend (r) Release (v) Vibrato

Stave 1:

E|-----------------|--------|-----------------|--------
B|-----------2--2--|--3--3--|-----------2--2--|--3--3--
G|-----------2--2--|--2--2--|-----------2--2--|--2--2--
D|-----------2--2--|--4--4--|-----------2--2--|--4--4--
A|--------0--------|--0--0--|--------0--------|--0--0--
E|--0--2-----------|--------|--0--2-----------|--------

Stave 2:

E|---------9--10--|--12--10--9---------|---------------------
B|-----10---------|-------------10-----|-----------5--5h7p5--
G|--9-------------|-----------------9--|--7--6--7------------
D|----------------|--------------------|---------------------
A|----------------|--------------------|---------------------
E|----------------|--------------------|---------------------

Stave 3:

E|---------9--10--9--|----------------------
B|-----10------------|--10------------5-----
G|--9----------------|------9\7--6h7--------
D|-------------------|-------------------7--
A|-------------------|----------------------
E|-------------------|----------------------

Stave 4:

E|--------------------|-----2-----|--------------5--|--7--5--
B|--------------2--3--|--5-----5--|--5--7--5--7-----|--------
G|--2--4--2--4--------|-----------|-----------------|--------
D|--------------------|-----------|-----------------|--------
A|--------------------|-----------|-----------------|--------
E|--------------------|-----------|-----------------|--------

Stave 5:

E|--------------------|--5--7--5--|--5--7--5--7--9--|--10--9--
B|--------------5--7--|-----------|-----------------|---------
G|--6--7--6--7--------|-----------|-----------------|---------
D|--------------------|-----------|-----------------|---------
A|--------------------|-----------|-----------------|---------
E|--------------------|-----------|-----------------|---------

Stave 6:

E|--------------|-------------------|-----------------|----------------
B|--------------|-------5-----------|-----------------|----------------
G|-----4--5--4--|--4/7-----6--2-----|-----------------|-------------2--
D|--7-----------|----------------2--|--2--4--5--5--4--|--2--0----------
A|--------------|-------------------|-----------------|--------3h4-----
E|--------------|-------------------|-----------------|----------------

Stave 7:

E|-----------------|----------------|-----------------|------10--12--14--12--
B|-----------------|-------5--------|-------------10--|--12------------------
G|-----4--5-----4--|--4/7-----6--7--|--9--11--12------|----------------------
D|--7--------7-----|----------------|-----------------|----------------------
A|-----------------|----------------|-----------------|----------------------
E|-----------------|----------------|-----------------|----------------------

Stave 8:

E|--------|--------|---------|----------|----------|--10--15--12--
B|--------|--------|---------|------10--|--12--13--|--------------
G|-----4--|--5--7--|--9--11--|--12------|----------|--------------
D|--7-----|--------|---------|----------|----------|--------------
A|--------|--------|---------|----------|----------|--------------
E|--------|--------|---------|----------|----------|--------------

Stave 9:

E|-----------|-----------|-----------|-----------
B|-----------|-----------|-----------|-----------
G|--5--------|--5--------|--5--------|--5--------
D|-----5--7--|-----5--7--|-----5--7--|-----5--7--
A|-----------|-----------|-----------|-----------
E|-----------|-----------|-----------|-----------

http://www.guitartabcreator.com
Guitar Tab Creator is intended to store guitar tab created through the tool. It currently does not support in-line text editing. Any text you place in here will be lost. If you need to comment on your tab, please use the "Tab Notes" section located below.