Sound will begin in 5 seconds

Blue Train Intro & Break

Chords
01234567891011121314151617181920212223
E
B
G
D
A
E
B
0 1 2 3 4 5 6 7 8 9 10 11 12 13 14 15 16 17 18 19 20 21 22 23
Song Science #1: How Pros Use 6 Chords to Write Hit Songs
(/) Slide Up  (\) Slide Down  (h) Hammer On  (p) Pull Off  (b) Bend (r) Release (v) Vibrato

Stave 1:

E|--------------------------------------------------0-------------------
B|-----------------------------------------------------3--0-------------
G|--------------2--3--4-----3p2--0h2p0-----2-----2-----------3p2--0-----
D|--5--4--3--2-------------------------------------------------------2--
A|-----------------------3--------------2-----2-------------------------
E|--3--2--1--0----------------------------------------------------------

Stave 2:

E|-------------------
B|-------------------
G|-------------------
D|--3h4--0--------0--
A|----------2--3-----
E|-------------------

Stave 3:

E|-----------------------------
B|--5--3--1--------------------
G|--5--4--2-----------3--2--0--
D|-----------0--2--0-----------
A|-----------------------------
E|-----------------------------

Stave 4:

E|-------------------------------3--2h3p2--3--2--3--------8--7--8--------
B|-------------------------3--5---------------------5--5-----------1--1--
G|-----2--3--4-----3p2--5------------------------------------------------
D|--2--------------------------------------------------------------------
A|--------------3--------------------------------------------------------
E|-----------------------------------------------------------------------

Stave 5:

E|--------------------------------3--2--
B|--------------------------3--5--------
G|-----2--3--4-----3--2--5--------------
D|--2-----------------------------------
A|--------------3-----------------------
E|--------------------------------------

Stave 6:

E|--0--------------
B|--0--0--0--0--0--
G|--4--2--0--0--0--
D|-----------4--2--
A|-----------------
E|-----------------

http://www.guitartabcreator.com
Guitar Tab Creator is intended to store guitar tab created through the tool. It currently does not support in-line text editing. Any text you place in here will be lost. If you need to comment on your tab, please use the "Tab Notes" section located below.