Sound will begin in 5 seconds

Tundra, 1

Chords
01234567891011121314151617181920212223
E
B
G
D
A
E
B
0 1 2 3 4 5 6 7 8 9 10 11 12 13 14 15 16 17 18 19 20 21 22 23
Song Science #1: How Pros Use 6 Chords to Write Hit Songs
(/) Slide Up  (\) Slide Down  (h) Hammer On  (p) Pull Off  (b) Bend (r) Release (v) Vibrato

Stave 1:

E|--7---------------------7-----------------7--7---------------------7--------------------------------------
B|-----8---------------------8-----7--8--9--7-----8---------------------8-----------------------------------
G|--------9--7--10--9--7--------9-----------7--------9--7--10--9--7--------9--7-----------------------------
D|-------------------------------------------------------------------------------8--7-----------------------
A|-------------------------------------------------------------------------------------8--7--------5--7-----
E|-------------------------------------------------------------------------------------------8--6--------5--

Stave 2:

E|--0--0--0--0--0--0--
B|--7--7--7--7--7--7--
G|--6--6--6--6--6--6--
D|--7--7--7--7--7--7--
A|--5--5--5--5--5--5--
E|--------------------

Stave 3:

E|--7--7--7--7--7--7--
B|--5--5--5--5--5--5--
G|--5--5--5--5--5--5--
D|--------------------
A|--------------------
E|--------------------

Stave 4:

E|--5--5--5--5--5--5--
B|--6--6--6--6--6--6--
G|--7--7--7--7--7--7--
D|--------------------
A|--------------------
E|--------------------

http://www.guitartabcreator.com
Guitar Tab Creator is intended to store guitar tab created through the tool. It currently does not support in-line text editing. Any text you place in here will be lost. If you need to comment on your tab, please use the "Tab Notes" section located below.