Remember

Chords

01234567891011121314151617181920212223
E
B
G
D
A
E
B
0 1 2 3 4 5 6 7 8 9 10 11 12 13 14 15 16 17 18 19 20 21 22 23
(/) Slide Up  (\) Slide Down  (h) Hammer On  (p) Pull Off  (b) Bend (r) Release (v) Vibrato

Stave 1:

E|--------------0--------3-----------0-----------------------1-----------0-----------1-----3--------
B|--1--------1-----3-----------1--------------------1--1-----------0-----------1-----------3--------
G|--2--2-----------0--0-----0--0--0-----0--------0-----2--2-----2-----2-----2-----1-----1--0--------
D|--------------------------------------------2--------3-----------------------------------0--------
A|--0--------------------------3-----------3-----------------------0-----------3-----------2--------
E|-----------------3-----------------------------------------------------------------------3--------

Stave 2:

E|--------0-----------0-----------0-----------0-----|--------1--------------0-----------1-----------3-----|--------0-----------0-----------0-----------0-----|--
B|--1-----------3-----------1-----------0-----------|--1-----------0--------------3-----------3-----------|--1-----------3-----------1-----------0-----------|--
G|-----0-----0-----0-----0-----2-----2-----0-----0--|-----2-----2-----0--------0--3--3-----3-----0-----0--|-----0-----0-----0-----0-----2-----2-----0-----0--|--
D|--------------------------------------------------|--3--------------------------------------------------|--------------------------------------------------|--
A|--3-----------2-----------0-----------2-----------|--------------2--------------1-----------------------|--3-----------2-----------0-----------2-----------|--
E|--------------------------------------------------|-----------------------------------------3-----------|--------------------------------------------------|--

Stave 3:

E|--------1-----------------------1-----------3-----|--------0-----------3-----------1-----------3-----
B|--1-----------0-----1-----1-----------3-----------|--1-----------3-----------1-----------3-----------
G|-----2-----2-----0-----2-----2-----2-----0-----0--|-----2-----2-----0-----0-----2-----2-----0-----0--
D|--3-----------------------0-----------------------|--------------------------3-----------------------
A|--------------2-----0-----------------------------|--0-----------------------------------------------
E|--------------------------------------3-----------|--------------3-----------------------3-----------

Stave 4:

E|--------0-----------0-----------0-----------0-----|--------1-----------0-----------1-----------3-----
B|--1-----------3-----------1-----------0-----------|--1-----------1-----------3-----------3-----------
G|-----0-----0-----0-----0-----2-----2-----0-----0--|-----2-----2-----0-----0-----2-----2-----0-----0--
D|--------------------------------------------------|--3-----------------------0-----------------------
A|--3-----------2-----------0-----------2-----------|--------------3-----------------------------------
E|--------------------------------------------------|--------------------------------------3-----------

Stave 5:

E|--------0-----------0-----------0-----------0-----|--------1-----------0-----------1-----------1-----------3-----------3-----
B|--1-----------3-----------1-----------0-----------|--1-----------1-----------3-----------1-----------3-----------3-----------
G|-----0-----0-----0-----0-----2-----2-----0-----0--|-----2-----2-----0-----0-----3-----3-----2-----2-----0-----0-----0-----0--
D|--------------------------------------------------|--3-----------------------------------3-----------------------------------
A|--3-----------2-----------0-----------2-----------|--------------3-----------1-----------------------------------------------
E|--------------------------------------------------|--------------------------------------------------3-----------3-----------

							http://www.guitartabcreator.com
Instruments
{"strings":[[[".",".",".",".",0,".",".",3,".",".",".",0,".",".",".",".",".",".",".",1,".",".",".",0,".",".",".",1,".",3,"_","_"],[1,".",".",1,".",3,".",".",".",1,".",".",".",".",".",".",1,1,".",".",".",0,".",".",".",1,".",".",".",3,"_","_"],[2,2,".",".",".",0,0,".",0,0,0,".",0,".",".",0,".",2,2,".",2,".",2,".",2,".",1,".",1,0,"_","_"],[".",".",".",".",".",".",".",".",".",".",".",".",".",".",2,".",".",3,".",".",".",".",".",".",".",".",".",".",".",0,"_","_"],[0,".",".",".",".",".",".",".",".",3,".",".",".",3,".",".",".",".",".",".",".",0,".",".",".",3,".",".",".",2,"_","_"],[".",".",".",".",".",3,".",".",".",".",".",".",".",".",".",".",".",".",".",".",".",".",".",".",".",".",".",".",".",3,"_","_"]],[[".",".",0,".",".",".",0,".",".",".",0,".",".",".",0,".","|",".",".",1,".",".",".",".",0,".",".",".",1,".",".",".",3,".","|",".",".",0,".",".",".",0,".",".",".",0,".",".",".",0,".","|"],[1,".",".",".",3,".",".",".",1,".",".",".",0,".",".",".","|",1,".",".",".",0,".",".",".",".",3,".",".",".",3,".",".",".","|",1,".",".",".",3,".",".",".",1,".",".",".",0,".",".",".","|"],[".",0,".",0,".",0,".",0,".",2,".",2,".",0,".",0,"|",".",2,".",2,".",0,".",".",0,3,3,".",3,".",0,".",0,"|",".",0,".",0,".",0,".",0,".",2,".",2,".",0,".",0,"|"],[".",".",".",".",".",".",".",".",".",".",".",".",".",".",".",".","|",3,".",".",".",".",".",".",".",".",".",".",".",".",".",".",".",".","|",".",".",".",".",".",".",".",".",".",".",".",".",".",".",".",".","|"],[3,".",".",".",2,".",".",".",0,".",".",".",2,".",".",".","|",".",".",".",".",2,".",".",".",".",1,".",".",".",".",".",".",".","|",3,".",".",".",2,".",".",".",0,".",".",".",2,".",".",".","|"],[".",".",".",".",".",".",".",".",".",".",".",".",".",".",".",".","|",".",".",".",".",".",".",".",".",".",".",".",".",".",3,".",".",".","|",".",".",".",".",".",".",".",".",".",".",".",".",".",".",".",".","|"]],[[".",".",1,".",".",".",".",".",".",".",1,".",".",".",3,".","|",".",".",0,".",".",".",3,".",".",".",1,".",".",".",3,"."],[1,".",".",".",0,".",1,".",1,".",".",".",3,".",".",".","|",1,".",".",".",3,".",".",".",1,".",".",".",3,".",".","."],[".",2,".",2,".",0,".",2,".",2,".",2,".",0,".",0,"|",".",2,".",2,".",0,".",0,".",2,".",2,".",0,".",0],[3,".",".",".",".",".",".",".",0,".",".",".",".",".",".",".","|",".",".",".",".",".",".",".",".",3,".",".",".",".",".",".","."],[".",".",".",".",2,".",0,".",".",".",".",".",".",".",".",".","|",0,".",".",".",".",".",".",".",".",".",".",".",".",".",".","."],[".",".",".",".",".",".",".",".",".",".",".",".",3,".",".",".","|",".",".",".",".",3,".",".",".",".",".",".",".",3,".",".","."]],[[".",".",0,".",".",".",0,".",".",".",0,".",".",".",0,".","|",".",".",1,".",".",".",0,".",".",".",1,".",".",".",3,"."],[1,".",".",".",3,".",".",".",1,".",".",".",0,".",".",".","|",1,".",".",".",1,".",".",".",3,".",".",".",3,".",".","."],[".",0,".",0,".",0,".",0,".",2,".",2,".",0,".",0,"|",".",2,".",2,".",0,".",0,".",2,".",2,".",0,".",0],[".",".",".",".",".",".",".",".",".",".",".",".",".",".",".",".","|",3,".",".",".",".",".",".",".",0,".",".",".",".",".",".","."],[3,".",".",".",2,".",".",".",0,".",".",".",2,".",".",".","|",".",".",".",".",3,".",".",".",".",".",".",".",".",".",".","."],[".",".",".",".",".",".",".",".",".",".",".",".",".",".",".",".","|",".",".",".",".",".",".",".",".",".",".",".",".",3,".",".","."]],[[".",".",0,".",".",".",0,".",".",".",0,".",".",".",0,".","|",".",".",1,".",".",".",0,".",".",".",1,".",".",".",1,".",".",".",3,".",".",".",3,"."],[1,".",".",".",3,".",".",".",1,".",".",".",0,".",".",".","|",1,".",".",".",1,".",".",".",3,".",".",".",1,".",".",".",3,".",".",".",3,".",".","."],[".",0,".",0,".",0,".",0,".",2,".",2,".",0,".",0,"|",".",2,".",2,".",0,".",0,".",3,".",3,".",2,".",2,".",0,".",0,".",0,".",0],[".",".",".",".",".",".",".",".",".",".",".",".",".",".",".",".","|",3,".",".",".",".",".",".",".",".",".",".",".",3,".",".",".",".",".",".",".",".",".",".","."],[3,".",".",".",2,".",".",".",0,".",".",".",2,".",".",".","|",".",".",".",".",3,".",".",".",1,".",".",".",".",".",".",".",".",".",".",".",".",".",".","."],[".",".",".",".",".",".",".",".",".",".",".",".",".",".",".",".","|",".",".",".",".",".",".",".",".",".",".",".",".",".",".",".",".",3,".",".",".",3,".",".","."]]],"numberofstrings":6,"notes":["E","B","G","D","A","E","B"],"capo":0,"stringnotes":["E4","B3","G3","D3","A2","E2"],"comments":["Stave 1:","Stave 2:","Stave 3:","Stave 4:","Stave 5:"],"timing":[["W","W","W","W","W","W","W","W","W","W","W","W","W","W","W","W","W","W","W","W","W","W","W","W","W","W","W","W","W"],["W","W","W","W","W","W","W","W","W","W","W","W","W","W","W","W",null,"W","W","W","W","W","W","W","W","W","W","W","W","W","W","W","W",null,null,"W","W","W","W","W","W","W","W","W","W","W","W","W","W","W","W"],["W","W","W","W","W","W","W","W","W","W","W","W","W","W","W","W",null,"W","W","W","W","W","W","W","W","W","W","W","W","W","W","W","W"],["W","W","W","W","W","W","W","W","W","W","W","W","W","W","W","W",null,"W","W","W","W","W","W","W","W","W","W","W","W","W","W","W","W"],["W","W","W","W","W","W","W","W","W","W","W","W","W","W","W","W",null,"W","W","W","W","W","W","W","W","W","W","W","W","W","W","W","W","W","W","W","W","W","W","W","W"]],"timingvisible":false,"tabcounter":41,"stave":4,"totalstaves":5,"instrument":"6guitar","selectedtuning":"6_standard","version":"13"}

Member for

1 month 2 weeks
Submitted by dorochi on Mon, 2020-08-10 11:25