Summer's End Solo

Chords

01234567891011121314151617181920212223
E
B
G
D
A
E
B
0 1 2 3 4 5 6 7 8 9 10 11 12 13 14 15 16 17 18 19 20 21 22 23
(/) Slide Up  (\) Slide Down  (h) Hammer On  (p) Pull Off  (b) Bend (r) Release (v) Vibrato

Stave 1:

E|----------------------------------------------------7--9--9b10r9--7h9p7------7--7------------------------------------------
B|---------------------------------7--10b11--7--7--7--7--------------------10--------10--7--------7--10----------------------
G|--9b11--11r9--7-----7v-----7--9-----------------------------------------------------------9b11---------9b10--7-----7b8-----
D|-----------------9------9---------------------------------------------------------------------------------------9-------9--
A|---------------------------------------------------------------------------------------------------------------------------
E|---------------------------------------------------------------------------------------------------------------------------

Stave 2:

E|-------------------------------------7--9--10--9h10h9------9--10--12--10--12--12b14--12b14--12b14--
B|-------------------------7h8p7p6--7--------------------12------------------------------------------
G|-----------7b8-----7--9----------------------------------------------------------------------------
D|--------7-------9----------------------------------------------------------------------------------
A|--7--9---------------------------------------------------------------------------------------------
E|---------------------------------------------------------------------------------------------------

Stave 3:

E|--12--10--9------
B|-------------12--
G|-----------------
D|-----------------
A|-----------------
E|-----------------

Stave 4: Repeat 4x

E|--9h10h12p10p9p10p9---------
B|---------------------12-----
G|----------------------------
D|----------------------------
A|----------------------------
E|----------------------------

Stave 5:

E|--------------------------12--15--14--14--14--19--19--15--14--12--14/21--21b22r21--19--19--19--------------------
B|--12--12--12--10--12--15-----------------------------------------------------------------------------------------
G|-----------------------------------------------------------------------------------------------------------------
D|-----------------------------------------------------------------------------------------------------------------
A|-----------------------------------------------------------------------------------------------------------------
E|-----------------------------------------------------------------------------------------------------------------

Stave 6:

E|------------------------------------------------------------------------------
B|--17--17--17--17b19--17--15------17b19--17b19--17--15------15b16--------------
G|-----------------------------16------------------------16---------16--14--16--
D|------------------------------------------------------------------------------
A|------------------------------------------------------------------------------
E|------------------------------------------------------------------------------

Stave 7:

E|----------------------------------------------
B|-----------10---------------------------------
G|--7--9b11------9p7-----7----------------------
D|--------------------9-----9p7-----7-----7--9--
A|-------------------------------9-----9--------
E|----------------------------------------------

Stave 8:

E|-------------7h10p9p7------7------------------7------------------
B|-------7h10------------10-----10--7-----7h10-----10b11r---10--7--
G|--7h9--------------------------------9---------------------------
D|-----------------------------------------------------------------
A|-----------------------------------------------------------------
E|-----------------------------------------------------------------

							http://www.guitartabcreator.com
Instruments
{"strings":[[[".",".",".",".",".",".",".",".",".",".",".",".",".",".",".",".",".",".",".",".",7,9,9,"b",10,"r",9,7,"h",9,"p",7,".",7,7,".",".",".",".",".",".",".",".",".",".",".",".",".",".",".","."],[".",".",".",".",".",".",".",".",".",".",".",".",".",7,10,"b",11,7,7,7,7,".",".",".",".",".",".",".",".",".",".",".",10,".",".",10,7,".",".",".",7,10,".",".",".",".",".",".",".",".","."],[9,"b",11,11,"r",9,7,".",7,"v",".",7,9,".",".",".",".",".",".",".",".",".",".",".",".",".",".",".",".",".",".",".",".",".",".",".",".",9,"b",11,".",".",9,"b",10,7,".",7,"b",8,"."],[".",".",".",".",".",".",".",9,".",".",9,".",".",".",".",".",".",".",".",".",".",".",".",".",".",".",".",".",".",".",".",".",".",".",".",".",".",".",".",".",".",".",".",".",".",".",9,".",".",".",9],[".",".",".",".",".",".",".",".",".",".",".",".",".",".",".",".",".",".",".",".",".",".",".",".",".",".",".",".",".",".",".",".",".",".",".",".",".",".",".",".",".",".",".",".",".",".",".",".",".",".","."],[".",".",".",".",".",".",".",".",".",".",".",".",".",".",".",".",".",".",".",".",".",".",".",".",".",".",".",".",".",".",".",".",".",".",".",".",".",".",".",".",".",".",".",".",".",".",".",".",".",".","."]],[[".",".",".",".",".",".",".",".",".",".",".",".",".",".",".",".",".",7,9,10,9,"h",10,"h",9,".",9,10,12,10,12,12,"b",14,12,"b",14,12,"b",14],[".",".",".",".",".",".",".",".",".",7,"h",8,"p",7,"p",6,7,".",".",".",".",".",".",".",".",12,".",".",".",".",".",".",".",".",".",".",".",".",".","."],[".",".",".",7,"b",8,".",7,9,".",".",".",".",".",".",".",".",".",".",".",".",".",".",".",".",".",".",".",".",".",".",".",".",".",".",".",".",".",".","."],[".",".",7,".",".",".",9,".",".",".",".",".",".",".",".",".",".",".",".",".",".",".",".",".",".",".",".",".",".",".",".",".",".",".",".",".",".",".",".","."],[7,9,".",".",".",".",".",".",".",".",".",".",".",".",".",".",".",".",".",".",".",".",".",".",".",".",".",".",".",".",".",".",".",".",".",".",".",".",".","."],[".",".",".",".",".",".",".",".",".",".",".",".",".",".",".",".",".",".",".",".",".",".",".",".",".",".",".",".",".",".",".",".",".",".",".",".",".",".",".","."]],[[12,10,9,"."],[".",".",".",12],[".",".",".","."],[".",".",".","."],[".",".",".","."],[".",".",".","."]],[[9,"h",10,"h",12,"p",10,"p",9,"p",10,"p",9,".","_"],[".",".",".",".",".",".",".",".",".",".",".",".",".",12,"_"],[".",".",".",".",".",".",".",".",".",".",".",".",".",".","_"],[".",".",".",".",".",".",".",".",".",".",".",".",".",".","_"],[".",".",".",".",".",".",".",".",".",".",".",".",".",".","_"],[".",".",".",".",".",".",".",".",".",".",".",".",".",".","_"]],[[".",".",".",".",".",".",12,15,14,14,14,19,19,15,14,12,14,"/",21,21,"b",22,"r",21,19,19,19,".",".",".",".",".","."],[12,12,12,10,12,15,".",".",".",".",".",".",".",".",".",".",".",".",".",".",".",".",".",".",".",".",".",".",".",".",".",".","."],[".",".",".",".",".",".",".",".",".",".",".",".",".",".",".",".",".",".",".",".",".",".",".",".",".",".",".",".",".",".",".",".","."],[".",".",".",".",".",".",".",".",".",".",".",".",".",".",".",".",".",".",".",".",".",".",".",".",".",".",".",".",".",".",".",".","."],[".",".",".",".",".",".",".",".",".",".",".",".",".",".",".",".",".",".",".",".",".",".",".",".",".",".",".",".",".",".",".",".","."],[".",".",".",".",".",".",".",".",".",".",".",".",".",".",".",".",".",".",".",".",".",".",".",".",".",".",".",".",".",".",".",".","."]],[[".",".",".",".",".",".",".",".",".",".",".",".",".",".",".",".",".",".",".",".",".",".",".","."],[17,17,17,17,"b",19,17,15,".",17,"b",19,17,"b",19,17,15,".",15,"b",16,".",".","."],[".",".",".",".",".",".",".",".",16,".",".",".",".",".",".",".",".",16,".",".",".",16,14,16],[".",".",".",".",".",".",".",".",".",".",".",".",".",".",".",".",".",".",".",".",".",".",".","."],[".",".",".",".",".",".",".",".",".",".",".",".",".",".",".",".",".",".",".",".",".",".",".","."],[".",".",".",".",".",".",".",".",".",".",".",".",".",".",".",".",".",".",".",".",".",".",".","."]],[[".",".",".",".",".",".",".",".",".",".",".",".",".",".",".",".",".","."],[".",".",".",".",10,".",".",".",".",".",".",".",".",".",".",".",".","."],[7,9,"b",11,".",9,"p",7,".",7,".",".",".",".",".",".",".","."],[".",".",".",".",".",".",".",".",9,".",9,"p",7,".",7,".",7,9],[".",".",".",".",".",".",".",".",".",".",".",".",".",9,".",9,".","."],[".",".",".",".",".",".",".",".",".",".",".",".",".",".",".",".",".","."]],[[".",".",".",".",".",".",7,"h",10,"p",9,"p",7,".",7,".",".",".",".",".",".",7,".",".",".",".",".",".","."],[".",".",".",7,"h",10,".",".",".",".",".",".",".",10,".",10,7,".",7,"h",10,".",10,"b",11,"r",".",10,7],[7,"h",9,".",".",".",".",".",".",".",".",".",".",".",".",".",".",9,".",".",".",".",".",".",".",".",".",".","."],[".",".",".",".",".",".",".",".",".",".",".",".",".",".",".",".",".",".",".",".",".",".",".",".",".",".",".",".","."],[".",".",".",".",".",".",".",".",".",".",".",".",".",".",".",".",".",".",".",".",".",".",".",".",".",".",".",".","."],[".",".",".",".",".",".",".",".",".",".",".",".",".",".",".",".",".",".",".",".",".",".",".",".",".",".",".",".","."]]],"numberofstrings":6,"notes":["E","B","G","D","A","E","B"],"capo":0,"stringnotes":["E4","B3","G3","D3","A2","E2"],"comments":["Stave 1:","Stave 2:","Stave 3:","Stave 4: Repeat 4x","Stave 5:","Stave 6:","Stave 7:","Stave 8:"],"timing":[[null,null,null,null,null,null,null,null,"W","W","W","W","W","W","W","W","W","W","W","W","W","W","W",null,"W",null,"W","W",null,"W","W","W","W","W","W","W","W","W",null,"W","W","W","W",null,"W","W","W","W",null,"W","W"],["W","W","W","W",null,"W","W","W","W","W",null,"W",null,"W","W","W","W","W","W","W","W",null,"W",null,"W","W","W","W","W","W","W","W","W","W","W","W","W","W",null,"W"],["W","W","W","W"],["W",null,"W",null,"W",null,"W",null,"W",null,"W",null,"W","W"],["W","W","W","W","W","W","W","W","W","W","W","W","W","W","W","W","W",null,"W","W",null,"W",null,"W","W","W","W"],["W","W","W","W",null,"W","W","W","W","W",null,"W","W",null,"W","W","W","W","W",null,"W","W","W","W"],["W","W",null,"W","W","W",null,"W","W","W","W",null,"W","W","W","W","W","W"],["W",null,"W","W",null,"W","W",null,"W",null,"W",null,"W","W","W","W","W","W","W",null,"W","W","W",null,"W","W","W","W","W"]],"timingvisible":false,"tabcounter":29,"stave":7,"totalstaves":8,"instrument":"6guitar","selectedtuning":"6_standard","version":"13"}

Member for

5 days 12 hours
Submitted by DonSizzle on Wed, 2020-09-16 20:02