Happy Birthday

Chords

01234567891011121314151617181920212223
E
B
G
D
A
E
B
0 1 2 3 4 5 6 7 8 9 10 11 12 13 14 15 16 17 18 19 20 21 22 23
(/) Slide Up  (\) Slide Down  (h) Hammer On  (p) Pull Off  (b) Bend (r) Release (v) Vibrato

Stave 1:

E|--------------------------------------
B|--------------6--5--------------8--6--
G|--5--5--7--5--------5--5--7--5--------
D|--------------------------------------
A|--------------------------------------
E|--------------------------------------

Stave 2:

E|--------8--5-----------6--6--5-----------
B|--------------6--5--------------6--8--6--
G|--5--5--------------7--------------------
D|-----------------------------------------
A|-----------------------------------------
E|-----------------------------------------

							http://www.guitartabcreator.com
Instruments
{"strings":[[[".",".",".",".",".",".",".",".",".",".",".","."],[".",".",".",".",6,5,".",".",".",".",8,6],[5,5,7,5,".",".",5,5,7,5,".","."],[".",".",".",".",".",".",".",".",".",".",".","."],[".",".",".",".",".",".",".",".",".",".",".","."],[".",".",".",".",".",".",".",".",".",".",".","."]],[[".",".",8,5,".",".",".",6,6,5,".",".","."],[".",".",".",".",6,5,".",".",".",".",6,8,6],[5,5,".",".",".",".",7,".",".",".",".",".","."],[".",".",".",".",".",".",".",".",".",".",".",".","."],[".",".",".",".",".",".",".",".",".",".",".",".","."],[".",".",".",".",".",".",".",".",".",".",".",".","."]]],"numberofstrings":6,"notes":["E","B","G","D","A","E","B"],"capo":0,"stringnotes":["E4","B3","G3","D3","A2","E2"],"comments":["Stave 1:","Stave 2:","Stave 3:","Stave 4:"],"timing":[[null,null,null,null,null,null,null,null,null,null,null,null],[null,null,null,null,null,null,null,null,null,null,null,null,null]],"timingvisible":false,"tabcounter":13,"stave":1,"totalstaves":2,"instrument":"6guitar","selectedtuning":"6_standard","version":"13"}

Member for

1 week 3 days
Submitted by donatellip on Sat, 2020-08-01 09:11