Sound will begin in 5 seconds

I Can't Be Satisfied (I be's Troubled) - Muddy Waters

Chords
01234567891011121314151617181920212223
E
B
G
D
A
E
B
0 1 2 3 4 5 6 7 8 9 10 11 12 13 14 15 16 17 18 19 20 21 22 23
Song Science #1: How Pros Use 6 Chords to Write Hit Songs
(/) Slide Up  (\) Slide Down  (h) Hammer On  (p) Pull Off  (b) Bend (r) Release (v) Vibrato

Stave 1:

D|-10/12-------------------10/12-------------------------10/12----------------------
B|-------10-12-------------------10/12-10/12-------------------10/12----------------
G|-------------10/12-0-3-0-------------------10-12-0-3-0-------------10/12-12\0-3-0-
D|----------------------------------------------------------------------------------
G|-------------------0-3-0-------------------------0-3-0----------------------------
D|----------------------------------------------------------------------------------

Stave 2:

D|-----------------------------------------5-5-5-------5/7-5/7-5/7-3-3-3-------------
B|-----------------------------------------------------------------------------------
G|---------------------3-0-3-3-3-0-3-3-3-0-------0-3-0-------------------3-0-3-3-3-0-
D|-0h3-0-3/5-3/5-3/5-3---------------------------------------------------------------
G|---------------------3-0-3-3-3-0-3-3-3-0-------0-3-0-------------------3-0-3-3-3-0-
D|-----------------------------------------------------------------------------------

http://www.guitartabcreator.com
Guitar Tab Creator is intended to store guitar tab created through the tool. It currently does not support in-line text editing. Any text you place in here will be lost. If you need to comment on your tab, please use the "Tab Notes" section located below.